Tablatura para Guitarra de Reik: Creo en tí
Conexión · Inscripción
Letras y Acordes
Pantalla Completa
Imprimir
Versión Texto
Añadir Favorito
Otras Versiones

Mostrar Diagramas
Desfile Automático
Manipular Acordes
Formato del Texto


Reik
Creo en tí(TAB)
calidad:
reik0523
AUTOR: Reik
ALBUM: Peligro (2011)
Enviado por Rubén, basado en Alex
Hola gente de lacuerda.net
En esta ocasión les traigo la tablatura SÚPERPERFECTA de Creo en ti
Espero q lo disfruten, síganme en mi canal de youtube, subiré
tutoriales a la perfección:

http://www.youtube.com/channel/UCeUe6WMaEB74ZjTOwCJnhvA/videos

La canción está medio tono abajo
1-Eb
2-Bb
3-Gb
4-Db
5-Ab
6-Eb


                            B   F#m   A   E
                        1|--7----2----6---0-----
                        2|--7----2----6---0-----
                        3|--8----2----6---1-----
                        4|--9----4----7---2-----
                        5|--9----4----7---2-----
                        6|--7----2----5---0-----

         Ya   no  importa   cada   noche  que  espere,
     B                              F#m
1|--------------------------------|------------------------------
2|---------------------------------------------------------------
3|-------8-----8---------8-----8---------2-----2--------2-----2--
4|---------9---------------9---------------4--------------4------
5|-----9-----9---------9-----9---------4-----4--------4-----4----
6|---7---------------7------------|--2--------------2------------

         cada     calle  o   laberinto  que  cruce,
     A                            E
1|-----------------------------|---------------------------------
2|---------------------------------------------------------------
3|-------6-----6------6-----6---------1-----1--------1-----1-----
4|---------7------------7---------------2--------------2---------
5|-----7-----7------7-----7---------2-----2--------2-----2-------
6|---5------------5------------|--0--------------0---------------

         por que el Cielo  ha conspirado a mi favor
     B                              F#m
1|--------------------------------|------------------------------
2|---------------------------------------------------------------
3|-------8-----8---------8-----8---------2-----2--------2-----2--
4|---------9---------------9---------------4--------------4------
5|-----9-----9---------9-----9---------4-----4--------4-----4----
6|---7---------------7------------|--2--------------2------------

        y a un  segundo   de   rendirme te encontré...
     A                             E
1|------------------------------|--------------------------------
2|---------------------------------------------------------------
3|-------6-----6-------6-----6---------1-----1--------1-----1----
4|---------7-------------7---------------2--------------2--------
5|-----7-----7-------7-----7---------2-----2--------2-----2------
6|---5-------------5------------|--0--------------0--------------

                                  --Pre-coro--

                      C#m   A  B7sus4   B7  Amaj7  Bmaj7
                   1|--4----2-----2-----2-----4------6-----
                   2|--5----5-----5-----4-----5------7-----
                   3|--6----2-----2-----2-----4------6-----
                   4|--6----2-----4-----4-----7------9-----
                   5|--4----0-----2-----2-----4------6-----
                   6|--------------------------------------



    Piel    con   piel    el    corazón   se   me  desarma,
    C#m            A            B7sus4         B7
1|----------------|------------|--------------|------------------------
2|-------5-----5-------5-----5------5-----5---------4-----4------------
3|---------6-------------2------------2---------------2----------------
4|-----6-----6-------2-----2------4-----4---------4-----4--------------
5|---4-------------0------------2---------------2----------------------
6|----------------|------------|--------------|------------------------

     me   haces   bien      enciendes  luces    en  mi  al      ma...
     C#m           A            B7sus4          B7      Amaj7   Bmaj7
1|---------------|-------------|-------------|-------|--------|--------
2|-------5-----5-------5-----5------5-----5------4-------5-------7-----
3|---------6-------------2------------2----------2-------4-------6-----
4|-----6-----6-------2-----2------4-----4--------4-------7-------9-----
5|---4-------------0------------2----------------2-------4-------6-----
6|---------------|-------------|-------------|-------|--------|--------



--Coro--


   Creo    en   ti         y en este          amor
   E                            Bmaj7
1|-----------------------------|---------------------------------------
2|-----9-----9-------9-----9---------7-----7--------7-----7------------
3|-------9-------------9---------------8--------------8----------------
4|---9-----9-------9-----9---------9-----9--------9-----9--------------
5|-7-------------7---------------6--------------6----------------------
6|-----------------------------|---------------------------------------

que me vuelve indestructible  que detuvo    mi  caída libre...
       C#m                   B       A            B
1|-------------------------|-------|-------------|---------------------
2|----------5-----5------5---4---4-------2----2-------4-----4----------
3|------------6----------------------------2------------4--------------
4|--------6-----6------6-------4-------2-----2------4-----4------------
5|------4------------4-------2-------0------------2--------------------
6|-------------------------|-------|-------------|---------------------

  Creo     en   ti    y       mi           dolor
   E                            Bmaj7
1|----------------------------|----------------------------------------
2|-----9-----9-------9-----9-------7-----7--------7-----7--------------
3|-------9-------------9-------------8--------------8------------------
4|---9-----9-------9-----9-------9-----9--------9-----9----------------
5|-7-------------7-------------6--------------6------------------------
6|----------------------------|----------------------------------------

   se quedó  a  kilómetros   atrás
   B7/C           D7/Eb         C#m
1|---------------|-------------|---------------------------------------
2|------5-----5--------7-----7-------5-----5---------------------------
3|--------2--------------5-------------6-------------------------------
4|----4-----4--------7-----7-------6-----6-----------------------------
5|--3--------------6-------------4-------------------------------------
6|---------------|-------------|---------------------------------------

   mis        fantasmas        hoy
   C#m/B         C#7sus4/Bb
1|--------------|------------------------------------------------------
2|------5-----5--------7-----7------7-----7----------------------------
3|--------4--------------6------------6--------------------------------
4|----6-----6--------4-----4------4-----4------------------------------
5|---------------------------------------------------------------------
6|--7-----------|--6------------6--------------------------------------

por fin        están en paz...
     A            B
1|---------------|-----------------------------------------------------
2|-------2-----2------4-----4------------------------------------------
3|---------2------------4----------------------------------------------
4|-----2-----2------4-----4--------------------------------------------
5|---0-----------|2----------------------------------------------------
6|---------------------------------------------------------------------
    E
1|--------------|-----------|-------------|--------------------
2|------5-----5------5----5-------5----5-------5------5--------
3|--------4--------4---4-------4---4---------4------4----------
4|----6-----6----7------7----4-------4-----6------------------- x2
5|------------------------------------------------6------------
6|--0-----------|-----------|-------------|--------------------

--Versos--

          El   pasado es un mal sueño    que acabo,
   B                              F#m
1|--------------------------------|------------------------------
2|---------------------------------------------------------------
3|-------8-----8---------8-----8---------2-----2--------2-----2--
4|---------9---------------9---------------4--------------4------
5|-----9-----9---------9-----9---------4-----4--------4-----4----
6|---7---------------7------------|--2--------------2------------

        un     incendio que en tus brazos  se   apago,
     A                            E
1|-----------------------------|------------------------------------
2|------------------------------------------------------------------
3|-------6-----6------6-----6------------1-----1--------1-----1-----
4|---------7------------7------------------2--------------2---------
5|-----7-----7------7-----7------------2-----2--------2-----2-------
6|---5------------5------------|-----0--------------0---------------

         cuando estaba medio     pasó    de    caer
     B                            F#m
1|------------------------------|-----------------------------------
2|------------------------------------------------------------------
3|-------8-----8-------8-----8---------2-----2--------2-----2-------
4|---------9-------------9---------------4--------------4-----------
5|-----9-----9-------9-----9---------4-----4--------4-----4---------
6|---7-------------7------------|--2--------------2-----------------

        mis    silencios se encontraron con tu voz...
     A                            E
1|-----------------------------|------------------------------------
2|------------------------------------------------------------------
3|-------6-----6------6-----6---------1-----1--------1-----1--------
4|---------7------------7---------------2--------------2------------
5|-----7-----7------7-----7---------2-----2--------2-----2----------
6|---5------------5------------|--0--------------0------------------

--Pre-coro--

    Te         seguí        y reescribiste     mi futuro
    C#m            A            B7sus4         B7
1|---------------|-------------|--------------|------------------------
2|-------5-----5-------5-----5------5-----5---------4-----4------------
3|---------6-------------2------------2---------------2----------------
4|-----6-----6-------2-----2------4-----4---------4-----4--------------
5|---4-------------0------------2---------------2----------------------
6|---------------|-------------1--------------|------------------------

    es         aquí     mi     único         lugar    segu     ro
    C#m           A            B7sus4          B7      Amaj7   Bmaj7
1|---------------|------------|--------------|-------|--------|--------
2|-------5-----5-------5-----5------5-----5------4-------5-------7-----
3|---------6-------------2------------2----------2-------4-------6-----
4|-----6-----6-------2-----2------4-----4--------4-------7-------9-----
5|---4-------------0------------2----------------2-------4-------6-----
6|---------------|------------|--------------|-------|--------|--------


--Coro--

   Creo    en   ti         y en este          amor
   E                            Bmaj7
1|-----------------------------|---------------------------------------
2|-----9-----9-------9-----9---------7-----7--------7-----7------------
3|-------9-------------9---------------8--------------8----------------
4|---9-----9-------9-----9---------9-----9--------9-----9--------------
5|-7-------------7---------------6--------------6----------------------
6|-----------------------------|---------------------------------------

que me vuelve indestructible  que detuvo    mi  caída libre...
       C#m                   B       A            B
1|-------------------------|-------|-------------|---------------------
2|----------5-----5------5---4---4-------2----2-------4-----4----------
3|------------6----------------------------2------------4--------------
4|--------6-----6------6-------4-------2-----2------4-----4------------
5|------4------------4-------2-------0------------2--------------------
6|-------------------------|-------|-------------|---------------------

  Creo     en   ti    y       mi           dolor
   E                            Bmaj7
1|----------------------------|----------------------------------------
2|-----9-----9-------9-----9-------7-----7--------7-----7--------------
3|-------9-------------9-------------8--------------8------------------
4|---9-----9-------9-----9-------9-----9--------9-----9----------------
5|-7-------------7-------------6--------------6------------------------
6|----------------------------|----------------------------------------

   se quedó  a  kilómetros   atrás
   B7/C           D7/Eb         C#m
1|---------------|-------------|---------------------------------------
2|------5-----5--------7-----7-------5-----5---------------------------
3|--------2--------------5-------------6-------------------------------
4|----4-----4--------7-----7-------6-----6-----------------------------
5|--3--------------6-------------4-------------------------------------
6|---------------|-------------|---------------------------------------

   mis        fantasmas        hoy
   C#m/B         C#7sus4/Bb
1|--------------|------------------------------------------------------
2|------5-----5--------7-----7------7-----7----------------------------
3|--------4--------------6------------6--------------------------------
4|----6-----6--------4-----4------4-----4------------------------------
5|---------------------------------------------------------------------
6|--7-----------|--6------------6--------------------------------------

por fin        están en paz...
     A            B
1|---------------|-----------------------------------------------------
2|-------2-----2------4-----4------------------------------------------
3|---------2------------4----------------------------------------------
4|-----2-----2------4-----4--------------------------------------------
5|---0-----------|2----------------------------------------------------
6|---------------------------------------------------------------------

Final(Cambiado)

1|--------------|-----------|-------------|--------------------
2|------5-----5------5----5-------5----5-------5---------5------
3|--------4--------4---4-------4---4---------4--------4--------
4|----6-----6----7------7----4-------4-----6------------------
5|------------------------------------------------6------------
6|--0-----------|-----------|-------------|--------------------

    E                                                     E
1|--------------|-----------|-------------|---------------0----
2|------5-----5------5----5-------5----5-------5------5---5----
3|--------4--------4---4-------4---4---------4------4-----4----
4|----6-----6----7------7----4-------4-----6--------------6----
5|------------------------------------------------6-------7----
6|--0-----------|-----------|-------------|---------------0----




Bueno eso fue todo, ahhh se me olvidaba, como son 2 guitarras
todas tocan iguales la canción, en la parte final de cada coro mientras que:

La guitarra 1 hace esto:

    E
1|--------------|-----------|-------------|--------------------
2|------5-----5------5----5-------5----5-------5------5--------
3|--------4--------4---4-------4---4---------4------4----------
4|----6-----6----7------7----4-------4-----6------------------- x2
5|------------------------------------------------6------------
6|--0-----------|-----------|-------------|--------------------


La guitarra 2 hace esto :
    E
1|--------------|-----------|-[12]--------|--------------------
2|----------------[12]-----------------------------------------
3|-------------------------------------------------------------
4|------------------------------------------------------------- x2
5|------------------------------------------------------------
6|--------------|-----------|-------------|--------------------

Significa que tiene que hacer armonicos naturales.

Se hace de la siguiente manera:
1- pones el dedo en el traste 12 pero no presionas, solo encimita,
tocas esa cuerda y levantas inmediatamente el dedo de la mano izquierda. :D

mUCHAS GRACIAS Y PUNTUEN.
Este fichero es trabajo propio de su transcriptor y representa su interpretación personal de la canción. El material contenido en esta página es
para exclusivo uso privado, por lo que se prohibe su reproducción o retransmisión, así como su uso para fines comerciales.
© LaCuerda.net · Aviso Legal · Privacidad