Tablatura para Guitarra de los Ratones Paranoicos: Rock del Gato
Conexión · Inscripción
Letras y Acordes
Pantalla Completa
Imprimir
Versión Texto
Añadir Favorito
Otras Versiones

Mostrar Diagramas
Desfile Automático
Manipular Acordes
Formato del Texto

los Ratones Paranoicos
Rock del Gato(TAB)
calidad:
rpar0261
AUTOR: Juanse
ALBUM: Furtivos (1989)
Enviado por manu
INTRO

  A
/-----------------------------
/-----2--3--3--2--2--3--3-----
/-----2--2--2--2--2--2--2-----
/-----2--4--4--2--2--4--4-----
/--0--------------------------
/-----------------------------

                     A
Quiero verla en el show

/-----------------------------
/-----2--3--3--2--2--3--3-----
/-----2--2--2--2--2--2--2-----
/-----2--4--4--2--2--4--4-----
/--0--------------------------
/-----------------------------

                   A
es como un gato siames

/-----------------------------
/-----2--3--3--2--2--3--3-----
/-----2--2--2--2--2--2--2-----
/-----2--4--4--2--2--4--4-----
/--0--------------------------
/-----------------------------

                     D
su cola arde en el risco


/--------3----3--------
/--------3----3--------
/--------2----2--------
/--0--0----------------
/----------------------
/----------------------

                   A
espero que alguna vez


/-----------------------------
/-----2--3--3--2--2--3--3-----
/-----2--2--2--2--2--2--2-----
/-----2--4--4--2--2--4--4-----
/--0--------------------------
/-----------------------------

                   E
al ver sus ojos me de


/------------------------------------
/--------10--10----10--10----10--10--
/--------9---9-----9---9-----9---9---
/--------9---9-----9---9-----9---9---
/--7--7---------7---------7----------
/-----------------------------------

                  A
alguna noche de hotel.


/-----------------------------
/-----2--3--3--2--2--3--3-----
/-----2--2--2--2--2--2--2-----
/-----2--4--4--2--2--4--4-----
/--0--------------------------
/-----------------------------


El resto del tema repite todo igual:

                     A
Quiero verla en el show,

es como un gato siamés.
                      D
Su cola arde en el risco,
                   A
espero que alguna vez
                   E
el ver sus ojos me de
                   A
alguna noche de hotel.

                      A
En mi boca no hay control,

me voy cayendo a sus pies.
                       D
Sus piernas son un abrigo,
               A
al menos no moriré,
                  E
si todo me sale bien,
                       A
lo hare de nuevo otra vez.


   SOLO GUITARRA

E|-------------------------------|----------------------------------------|
B|--7(8)-(8)-(8)-(8)-7--5--------|--7(8)-(8)-(8)-(8)-7-5------------------|
G|-------------------------7(9)--|-----------------------7(9)-7(9)-7-5----|
D|-------------------------------|-------------------------------------7--|
A|-------------------------------|----------------------------------------|
E|-------------------------------|----------------------------------------|


E|-------------------------8--8---8---------------------------------------|
B|--7(8)-(8)-(8)-(8)-7--5--10-10--10-8--8--8--7-7/8/7-5-7-5---5-----------|
G|-----------------------------------9--9--9--7-------------7---7---------|
D|------------------------------------------------------------------------|
A|------------------------------------------------------------------------|
E|------------------------------------------------------------------------|


                     A
En mi boca no hay control,

me voy cayendo a sus pies.
                      D
Sus piernas son un abrigo,
                   A
espero que alguna vez,
                   E
al ver sus ojos me de,
                   A
alguna noche de hotel.

                    A
Quiero verla en el show,

es como un gato siamés.
                       D
Su cola arde en el risco,
                A
al menos no moriré
                  E
si todo de sale bien
                       A
lo hare de nuevo otra vez.


REPITE EL SOLO DE GUITARRA Y LUEGO DE ESTE, SIGUE CON EL RIFF 1,
Y LUEGO ENTRA LA VOZ EN LA SIGUIENTE ETROFA:

D
Su cola arde en el risco,
                 A
espero que alguna vez
                    MI
el ver sus ojos me de
                     A
alguna noche de hotel,
                    MI
el ver sus ojos me de
                     A
alguna noche de hotel.


     ---FIN---

ACLARACION: EL TEMA NO LO HICE ESCUCHANDOLO,
SOLO CON MI GUITARRA EN MANO Y LO QUE RECUERDO EN MI CABEZA,
ASIQUE PERDON POR ADELANTADO SI NO ESTA EXACTO.
Envía el tono de "Rock del Gato" a tu celular/móvil
Este fichero es trabajo propio de su transcriptor y representa su interpretación personal de la canción. El material contenido en esta página es
para exclusivo uso privado, por lo que se prohibe su reproducción o retransmisión, así como su uso para fines comerciales.
© LaCuerda.net · Aviso Legal · Privacidad