Letra y Acordes de los Ratones Paranoicos: Rock del Gato
Conexión · Inscripción
Letras y Acordes
Pantalla Completa
Imprimir
Versión Texto
Añadir Favorito
Otras Versiones

Mostrar Diagramas
Desfile Automático
Manipular Acordes
Formato del Texto


los Ratones Paranoicos
Rock del Gato
calidad:
rpar0263
AUTOR: Juanse
ALBUM: Furtivos (1989)
Enviado por fede
Intro:
E|---------------------------|
B|---------------------------|
G|---------------------------|
D|---------------------------|  ---> Riff 1 (la)
A|--3--3--3--3--2--0-----0---|
E|--------------------3------|


E|--------------------------------------------------|
B|--------------------------------------------------|
G|--------------------------------------------------|
D|--------------------------------------------------| ---> Riff 1 (la)
A|--3--3--3--3--2--0-----------4--4--5--5--6--6--7--|
E|--------------------3--5--5-----------------------|

\_ _ _ _ _ _ _ _ _ _ _ _ _    _ _ _ _ _ _ _ _ _ _ _ _ _ _ _ _ _ /
                           \ /
                         Intro



Riff 1 (La)
D|-2--2--4--2--2--4--|
A|-0--0--0--0--0--0--|
E|-------------------|

Riff 2 (re)

A|-2--2--4--2--2--4--|
D|-0--0--0--0--0--0--|
G|-------------------|

Riff 3 (mi)

D|-------------------|
A|-2--2--4--2--2--4--|
E|-0--0--0--0--0--0--|


Intro:

                       Riff 1
Quiero verla en el show,
                       Riff 1
es como un gato siamés.
                        Riff 2
Su cola arde en el risco
                     Riff 1
espero que alguna vez
                     Riff 3
al ver sus ojos me de
                     Riff 1
alguna noche de hotel.


Intro x 3



Quiero verla en el show,
es como un gato siamés.
D
Su cola arde en el risco,
A
espero que alguna vez el ver sus ojos me de
A
alguna noche de hotel. En mi boca no hay control, me voy cayendo a sus pies.
D
Sus piernas son un abrigo,
A
al menos no moriré, si todo me sale bien,
A
lo hare de nuevo otra vez. **************** En mi boca no hay control, me voy cayendo a sus pies.
D
Sus piernas son un abrigo,
A
espero que alguna vez, al ver sus ojos me de,
A
alguna noche de hotel. Quiero verla en el show, es como un gato siamés.
D
Su cola arde en el risco,
A
al menos no moriré si todo de sale bien
A
lo hare de nuevo otra vez. Intro x 3 Su cola arde en el risco,
A
espero que alguna vez el ver sus ojos me de
A
alguna noche de hotel, el ver sus ojos me de
A
alguna noche de hotel. Final: E|---7-5-------------7~----| E|-------7-5---7-5---7~----| E|-5---------8-----8-5~----|
Este fichero es trabajo propio de su transcriptor y representa su interpretación personal de la canción. El material contenido en esta página es
para exclusivo uso privado, por lo que se prohibe su reproducción o retransmisión, así como su uso para fines comerciales.

© LaCuerda.net · Aviso Legal · Privacidad