Tablatura para Guitarra de Rata Blanca: Si eres hijo del rock
Conexión · Inscripción
Letras y Acordes
Pantalla Completa
Imprimir
Versión Texto
Añadir Favorito
Otras Versiones

Mostrar Diagramas
Desfile Automático
Manipular Acordes
Formato del Texto

Rata Blanca
Si eres hijo del rock(TAB)
calidad:
rata0961
AUTOR: Rata Blanca  corregir
ALBUM: desconocido
Enviado por Diego
Y a pedido de muchos... aqui esta esta gran cancion de Rata Blanca.
Creo q esta lo suficientemente entendible como para q la saqen
Espero q les guste... y q les sirva mi esfuerzo... gracias.. adios!

(Afinacion standart)

 MI|----|
 SI|----|
SOL|----|
 RE|----|
 LA|----|
 MI|----|


INTRO:

1|-----------------------------------------------------------------|
2|-----------------------------------------------------------------|
3|-----------------------------------------------------------------|
4|-2---------------------------------------------------------------|
5|-0---4-4-4-4-4-4---2---4-4-4-4-4-4---2---4-4-4-4-4-4-----4-3-2---|
6|-----2-2-2-2-2-2---0---2-2-2-2-2-2---0---2-2-2-2-2-2---0---------|
      ---p.m------       ----p.m----      ----p.m-----

1|-------------------------------------------------|
2|-------------------------------------------------|
3|-------------------------------------------------|
4|-2-----------------------------------------------|
5|-0---4-4-4-4-4-4---2---4-4-4-4-4-4---2-4---7-9---|
6|-----2-2-2-2-2-2---0---2-2-2-2-2-2---0-2---5-7---|
       ----p.m----       ----p.m----

1|-----------------------------------------------------------------|
2|-----------------------------------------------------------------|
3|-----------------------------------------------------------------|
4|-2---------------------------------------------------------------|
5|-0---4-4-4-4-4-4---2---4-4-4-4-4-4---2---4-4-4-4-4-4-----4-3-2---|
6|-----2-2-2-2-2-2---0---2-2-2-2-2-2---0---2-2-2-2-2-2---0---------|
      ---p.m------       ----p.m----      ----p.m-----

1|-------------------------------------------------|
2|-------------------------------------------------|
3|-------------------------------------------------|
4|-2-----------------------------------------------|
5|-0---4-4-4-4-4-4---2---4-4-4-4-4-4---2-4---7-2---|
6|-----2-2-2-2-2-2---0---2-2-2-2-2-2---0-2---5-0---|
       ----p.m----       ----p.m----

  Voy detrás de la emoción
  solo quiero Rock‘n roll
  no me importa lo que piensen los demás
1|---------------------------------------------------------|
2|---------------------------------------------------------|
3|---------------------------------------------------------|
4|-4-------------------------------------------------------|
5|-2---2-2-2-2-2-2-2-2-2-2-2-2-2-2-2-2-2-2-2-2-2-2-2-2-2---|
6|---------------------------------------------------------|
       -----p.m-------p.m-----------p.m-------p.m--------

1|---------------------------------------------------------|
2|---------------------------------------------------------|
3|---------------------------------------------------------|
4|-----------------------------------------------------4---|
5|-----4---3---3---3-3-2-----------4---3---3---3-3-2-0-2---|
6|-0-2---2---0---0-------5-2-----2---2---0---0-------------|

  No me importa la ilusión
  que compro la sociedad
  hoy bailando por sus sueños
  que pretenden encontrar
1|------------------------------------|
2|------------------------------------|
3|------------------------------------|
4|--------------------------4-7---7---|
5|-2-2-2-2-2-2-2-2-2---4-5------------|
6|------------------------------5-----|
   ------p.m--------

  Si lo sientes en tu cuerpo
1|-------------------------------------------------|
2|-------------------------------------------------|
3|-------------------------------------------------|
4|-------------------------------------------------|
5|---------7-7---5---4---2---------7-7---5---4---2-|
6|-5-4-2-0-----0---0---0---5-4-2-0-----0---0---0---|

  ya jamás lo olvidarás
1|-------------------------------------------------|
2|-------------------------------------------------|
3|-------------------------------------------------|
4|-------------------------------------------------|
5|---------9-9---7---5---4---------9-9---7---5---4-|
6|-5-4-2-0-----0---0---0---5-4-2-0-----0---0---0---|

  todo cambia, cuando entiendas
1|-------------------------------------------------|
2|-------------------------------------------------|
3|-------------------------------------------------|
4|-------------------------------------------------|
5|---------7-7---5---4---2---------7-7---5---4---2-|
6|-5-4-2-0-----0---0---0---5-4-2-0-----0---0---0---|

  esa extraña sensación…
1|---------------------------------------------|
2|---------------------------------------------|
3|---------------------------------------------|
4|-------------------------------------7---6---|
5|-------2---2-2-2-2-2-2-2-2-2-2-2-2---5---4---|
6|-0-2-5---------------------------------------|
             ----------p.m-----------

   Rock and roll, rock and roll…
1|-----------------------------------------------------------------|
2|-----------------------------------------------------------------|
3|-----------------------------------------------------------------|
4|-2---------------------------------------------------------------|
5|-0---4-4-4-4-4-4---2---4-4-4-4-4-4---2---4-4-4-4-4-4-----4-3-2---|
6|-----2-2-2-2-2-2---0---2-2-2-2-2-2---0---2-2-2-2-2-2---0---------|
      ---p.m------       ----p.m----      ----p.m-----

1|-------------------------------------------------|
2|-------------------------------------------------|
3|-------------------------------------------------|
4|-2-----------------------------------------------|
5|-0---4-4-4-4-4-4---2---4-4-4-4-4-4---2-4---7-2---|
6|-----2-2-2-2-2-2---0---2-2-2-2-2-2---0-2---5-0---|
       ----p.m----       ----p.m----

  No podrás disimular
  si eres fiel hijo del Rock
  pues lo llevas en tu sangre y en tu piel…
1|-----------------------------------------------------------|
2|-----------------------------------------------------------|
3|-----------------------------------------------------------|
4|-2-4-------------------------------------------------------|
5|-0-2---2-2-2-2-2-2-2-2-2-2-2-2-2-2-2-2-2-2-2-2-2-2-2-2-2---|
6|-----------------------------------------------------------|
         -----p.m-------p.m-----------p.m-------p.m--------

1|---------------------------------------------------------|
2|---------------------------------------------------------|
3|---------------------------------------------------------|
4|-----------------------------------------------------4---|
5|-----4---3---3---3-3-2-----------4---3---3---3-3-2-0-2---|
6|-0-2---2---0---0-------5-2-----2---2---0---0-------------|

  Cuando puedas escuchar
  su potencia y su verdad
  reconocerás mentiras
  que no entienden los demás…
1|------------------------------------|
2|------------------------------------|
3|------------------------------------|
4|--------------------------4-7---7---|
5|-2-2-2-2-2-2-2-2-2---4-5------------|
6|------------------------------5-----|
   ------p.m--------

  Y es posible que tus padres
1|-------------------------------------------------|
2|-------------------------------------------------|
3|-------------------------------------------------|
4|-------------------------------------------------|
5|---------7-7---5---4---2---------7-7---5---4---2-|
6|-5-4-2-0-----0---0---0---5-4-2-0-----0---0---0---|

  no comprendan tu obsesión
1|-------------------------------------------------|
2|-------------------------------------------------|
3|-------------------------------------------------|
4|-------------------------------------------------|
5|---------9-9---7---5---4---------9-9---7---5---4-|
6|-5-4-2-0-----0---0---0---5-4-2-0-----0---0---0---|

  pues no entienden que se siente
1|-------------------------------------------------|
2|-------------------------------------------------|
3|-------------------------------------------------|
4|-------------------------------------------------|
5|---------7-7---5---4---2---------7-7---5---4---2-|
6|-5-4-2-0-----0---0---0---5-4-2-0-----0---0---0---|

  cuando se es hijo del Rock…
1|---------------------------------------------|
2|---------------------------------------------|
3|---------------------------------------------|
4|-------------------------------------7---6---|
5|-------2---2-2-2-2-2-2-2-2-2-2-2-2---5---4---|
6|-0-2-5---------------------------------------|
             ----------p.m-----------

  Rock and roll, rock and roll…
1|-----------------------------------------------------------------|
2|-----------------------------------------------------------------|
3|-----------------------------------------------------------------|
4|-2---------------------------------------------------------------|
5|-0---4-4-4-4-4-4---2---4-4-4-4-4-4---2---4-4-4-4-4-4-----4-3-2---|
6|-----2-2-2-2-2-2---0---2-2-2-2-2-2---0---2-2-2-2-2-2---0---------|
      ---p.m------       ----p.m----      ----p.m-----

1|-------------------------------------------------|
2|-------------------------------------------------|
3|-------------------------------------------------|
4|-2-----------------------------------------------|
5|-0---4-4-4-4-4-4---2---4-4-4-4-4-4---2-4---7-2---|
6|-----2-2-2-2-2-2---0---2-2-2-2-2-2---0-2---5-0---|
       ----p.m----       ----p.m----

Base del solo:

1|---------------------------------|
2|---------------------------------|
3|---------------------------------|
4|---------------------------2-4---|
5|-4-------------------------0-2---|
6|-2---2-2-2-2-2-2-2-2-2-2---------|(X7)
       ------p.m----------

1|-----------------------------------------------|
2|-----------------------------------------------|
3|-----------------------------------------------|
4|---------------------------4-6-----------------|
5|-4-------------------------2-4---4-4-4-4-4-4---|
6|-2---2-2-2-2-2-2-2-2-2-2-----------------------|
       -------p.m---------         ----p.m-----

1|-----------------------|
2|-----------------------|
3|-----------------------|
4|---4-6-----------------|
5|---2-4---4-4-4-4-4-4---|
6|-----------------------|(X3)
           ----p.m-----

1er Solo:

1|-------------------------------------|
2|-------------------------------------|
3|-------------------------------------|
4|-9b(11)-7-9-7------------------------|
5|--------------9------4-7-4-9-7-------|
6|-------------------7-----------9-7v--|

1|--------------------------------------------------------|
2|--------------------------------------------------------|
3|-----------------2-3---4p2---4p2---4---------2-4b-4b-4b-|
4|-----------2-3-4----------4-----4------2-3-4------------|
5|-----2-3-4----------------------------------------------|
6|-2-5----------------------------------------------------|

1|-----------------------------------------------------|
2|----7----7----10-7----7----------10---12-10---10-----|
3|-9b---9b---9b------9b---9b---9-11---11-----11----11--|
4|-----------------------------------------------------|
5|-----------------------------------------------------|
6|-----------------------------------------------------|

1|-9b-----------------------------------------------------|
2|---12-10-12-10---10-------------------------------------|
3|--------------11---11-9h11p9---9------------------------|
4|----------------------------11---11-10-9---9-11p9---11b-|
5|-----------------------------------------11------11-----|
6|--------------------------------------------------------|

1|--9---12p9---9-11p9---9-12p9---9-11p9---9-12p9---9-11p9---9-|
2|-10-------10-------10-------10-------10-------10-------10---|
3|------------------------------------------------------------|
4|------------------------------------------------------------|
5|------------------------------------------------------------|
6|------------------------------------------------------------|

1|-12p9---9-11p9---9-12p9---9-11p9---9-12p9---9-11p9---9---14b-|
2|-----10-------10-------10-------10-------10-------10---------|
3|-------------------------------------------------------------|
4|-------------------------------------------------------------|
5|-------------------------------------------------------------|
6|-------------------------------------------------------------|

1|------------------------15-14-----------------|
2|----14----14---------17------17-15-14---------|
3|-16b---16b---16b---------------------16-14----|
4|------------------------------------------16--|
5|----------------------------------------------|
6|----------------------------------------------|

1|----------------------------------------------------------------------|
2|---10-9-----12-11-----13-12-----15-14-----17-16-----19-18-----20-19---|
3|-11----11-13-----13-14-----14-16-----16-18-----18-20-----20-21-----21-|
4|----------------------------------------------------------------------|
5|----------------------------------------------------------------------|
6|----------------------------------------------------------------------|

1|-------------21b---14h15p14-------|
2|---22-21-------------------17-14--|
3|-23-----23------------------------|
4|----------------------------------|
5|----------------------------------|
6|----------------------------------|

1|---------------------|------------------|----------------------|
2|----9----------------|------------------|----------------------|
3|-11b---11b-9----9----|-----9-11b-9---9b-|--------9-------------|
4|-------------11---11-|-9s11-------11----|---9-11---11-9---9----|
5|---------------------|------------------|-11-----------11---11-|
6|---------------------|------------------|----------------------|

1|------------------------|
2|--------------------10b-|
3|-11p9---11p9---11p9-----|
4|-----11-----11----------|
5|------------------------|
6|------------------------|


  Muchos friquis pasaran
  los que creen influir
  en un arte que no saben entender
1|---------------------------------------------------------|
2|---------------------------------------------------------|
3|---------------------------------------------------------|
4|-4-------------------------------------------------------|
5|-2---2-2-2-2-2-2-2-2-2-2-2-2-2-2-2-2-2-2-2-2-2-2-2-2-2---|
6|---------------------------------------------------------|
       -----p.m-------p.m-----------p.m-------p.m--------

1|---------------------------------------------------------|
2|---------------------------------------------------------|
3|---------------------------------------------------------|
4|-----------------------------------------------------4---|
5|-----4---3---3---3-3-2-----------4---3---3---3-3-2-0-2---|
6|-0-2---2---0---0-------5-2-----2---2---0---0-------------|

  Y las modas cambiaran
  pero el Rock se quedara
  esperando nuevos hijos
  para sus vidas cambiar…
1|------------------------------------|
2|------------------------------------|
3|------------------------------------|
4|--------------------------4-7---7---|
5|-2-2-2-2-2-2-2-2-2---4-5------------|
6|------------------------------5-----|
   ------p.m--------

  Nada mata, nada cambia
1|-------------------------------------------------|
2|-------------------------------------------------|
3|-------------------------------------------------|
4|-------------------------------------------------|
5|---------7-7---5---4---2---------7-7---5---4---2-|
6|-5-4-2-0-----0---0---0---5-4-2-0-----0---0---0---|

  al espíritu del Rock
1|-------------------------------------------------|
2|-------------------------------------------------|
3|-------------------------------------------------|
4|-------------------------------------------------|
5|---------9-9---7---5---4---------9-9---7---5---4-|
6|-5-4-2-0-----0---0---0---5-4-2-0-----0---0---0---|

  y es posible, que lo entiendas
1|-------------------------------------------------|
2|-------------------------------------------------|
3|-------------------------------------------------|
4|-------------------------------------------------|
5|---------7-7---5---4---2---------7-7---5---4---2-|
6|-5-4-2-0-----0---0---0---5-4-2-0-----0---0---0---|

  cuando llegue la ocasión…
1|---------------------------------------------|
2|---------------------------------------------|
3|---------------------------------------------|
4|-------------------------------------7---6---|
5|-------2---2-2-2-2-2-2-2-2-2-2-2-2---5---4---|
6|-0-2-5---------------------------------------|
             ----------p.m-----------

  Rock and roll, rock and roll…
1|-----------------------------------------------------------------|
2|-----------------------------------------------------------------|
3|-----------------------------------------------------------------|
4|-2---------------------------------------------------------------|
5|-0---4-4-4-4-4-4---2---4-4-4-4-4-4---2---4-4-4-4-4-4-----4-3-2---|
6|-----2-2-2-2-2-2---0---2-2-2-2-2-2---0---2-2-2-2-2-2---0---------|
      ---p.m------       ----p.m----      ----p.m-----
1|-------------------------------------------------|
2|-------------------------------------------------|
3|-------------------------------------------------|
4|-2-----------------------------------------------|
5|-0---4-4-4-4-4-4---2---4-4-4-4-4-4---2-4---7-9---|
6|-----2-2-2-2-2-2---0---2-2-2-2-2-2---0-2---5-7---|
       ----p.m----       ----p.m----

  Rock ‘n roll... solo Rock ‘n roll
1|-----------------------------------------------------------------|
2|-----------------------------------------------------------------|
3|-----------------------------------------------------------------|
4|-2---------------------------------------------------------------|
5|-0---4-4-4-4-4-4---2---4-4-4-4-4-4---2---4-4-4-4-4-4-----4-3-2---|
6|-----2-2-2-2-2-2---0---2-2-2-2-2-2---0---2-2-2-2-2-2---0---------|
      ---p.m------       ----p.m----      ----p.m-----

1|-------------------------------------------------|
2|-------------------------------------------------|
3|-------------------------------------------------|
4|-2-----------------------------------------------|
5|-0---4-4-4-4-4-4---2---4-4-4-4-4-4---2-4---7-2---|
6|-----2-2-2-2-2-2---0---2-2-2-2-2-2---0-2---5-0---|
       ----p.m----       ----p.m----

Base del segundo solo:

1|--------------------------------------------------------------|
2|--------------------------------------------------------------|
3|--------------------------------------------------------------|
4|--------------------------------------------------------2-4---|
5|-4------------------------------------------------------0-2---|
6|-2---2-2-2-2-2-2-2-2-2-2-2-2-2-2-2-2-2-2-2-2-2-2-2-2-2--------|(X3)
       ------p.m-------p.m--------p.m-------p.m---------

  2do solo:

1|---------------------------------------------------|
2|---------------------------------------------------|
3|---------------------------------------------------|
4|-10b-9h10p9-----10b-9h10p9-----10b-9h10p9----------|
5|-----------12-9-----------12-9-----------12-9---9v-|
6|---------------------------------------------12----|

1|------------------------------------------------|
2|------------------------------------------------|
3|------------------------------------------------|
4|----------2-------------------------------------|
5|----2-3-4---4-3-4-3-2h3p2---2-------2-3-4-3-0-2-|
6|-2-5----------------------5---5-2-5-------------|

1|------------------------------------------------------------|
2|----7----7----7-------7---7----7------10-12p10-12p10--------|
3|-9b---9b---9b------9b---9b---9b-----11--------------11-9h11-|
4|------------------------------------------------------------|
5|------------------------------------------------------------|
6|------------------------------------------------------------|

1|-----------------------------------------------------------------|
2|-12-14p12/10-12p10/9-10p9/7-9p7----7-----------------------------|
3|---------------------------------9---9-7-------------------------|
4|-----------------------------------------9-7---------------------|
5|---------------------------------------------9-8-7----------7-9v-|
6|---------------------------------------------------9-8-7-8-9-----|

1|-------------------------------------------------------12---12---12-14-|
2|-12-12-12-----12-12-12-------10-12p10-12p10---10-12/14---14---14-------|
3|-11-11-11-----11-11-11-----11---------------11-------------------------|
4|--9—-9—-9------9—-9—-9-------------------------------------------------|
5|-----------------------------------------------------------------------|
6|-----------------------------------------------------------------------|

1|-15b-15b-15b-15b-15b---14-12-14-12-------------------12-14-15b-|
2|----------------------------------14-12--------12-14-----------|
3|---------------------------------------14-12-14----------------|
4|---------------------------------------------------------------|
5|---------------------------------------------------------------|
6|---------------------------------------------------------------|
1|-20b-18---18---15-12-15p12---------------------------------------|
2|-------20-----------------14-12-10h12p10---10-------------12b-10-|
3|----------------------------------------11---11-9-------9--------|
4|-------------------------------------------------11-9-11---------|
5|-----------------------------------------------------------------|
6|-----------------------------------------------------------------|

1|--------------------------------|
2|-10h12p10-9h10p9-10h12p10-------|
3|--------------------------------|
4|--------------------------------|
5|----------------------------9/0-|
6|--------------------------------|

Parte final:

1|--------------------------------------------------------------------|
2|--------------------------------------------------------------------|
3|--------------------------------------------------------------------|
4|-------------------------------------------------------2-4-7-4-2----|
5|-4---------------------------------------------------4-0-2-5-2-0-4--|
6|-2---2-2-2-2-2-2-2-2-2-2-2-2-2-2-2-2-2-2-2-2-2-2-2---2-----------2--|
       ------p.m-------p.m--------p.m--------p.m----

1|-------------------------------------------|-------|
2|-------------------------------------------|-------|
3|-------------------------------------------|-------|
4|-10b-10b-10b---9h10p9-7h9p7----------------|-------|
5|----------------------------9-7-------0----|---4---|
6|--------------------------------9-8-7---2v-|---2---|
Envía el tono de "Si eres hijo del rock" a tu celular/móvil
Este fichero es trabajo propio de su transcriptor y representa su interpretación personal de la canción. El material contenido en esta página es
para exclusivo uso privado, por lo que se prohibe su reproducción o retransmisión, así como su uso para fines comerciales.
© LaCuerda.net · Aviso Legal · Privacidad