Tablatura para Guitarra de Rata Blanca: Por que es tan dificil amar
Conexión · Inscripción
Letras y Acordes
Pantalla Completa
Imprimir
Versión Texto
Añadir Favorito
Otras Versiones

Mostrar Diagramas
Desfile Automático
Manipular Acordes
Formato del Texto

Rata Blanca
Por que es tan dificil amar(TAB)
calidad:
rata0201
AUTOR: Walter Giardino, Roxana Giardino
ALBUM: Grandes Canciones (1990)
Enviado por Ricardo
Trascripción por Ricardo Ruíz
Email to: sototh@yahoo.com
Sí encuentras alguna falla por favor envía un mail


E----------------------7-------------------------------------------------
B---5/7------------------7—7b--------------------------------------------
G--------4---4-6-7--------------6--6-7-7/9---6-7-7/9---12—11h12p11--9----
D------------------------------------------------------------------------
A------------------------------------------------------------------------
E------------------------------------------------------------------------

E------------------------------------------------------------------------
B------------------------------------------------------------------------
G----------------------11p8-----7/8-9-11-12b--12-11p9-11/12---9p6---6-7-9
D---12b----11p9—-11/12-------9------------------------------------7------
A------------------------------------------------------------------------
E------------------------------------------------------------------------

                                                          UB.............
E-----------------------------------------------------------7--10--10----
B----------------------------------------------------------10b-13b-13b---
G---11b-9p7-9/11---7p4--4-6-7-9b--7p6-7/9—9/11—11p9--7-------------------
D---------------------5--------------------------------------------------
A------------------------------------------------------------------------
E------------------------------------------------------------------------

.....
E-12-----------14--------------------------------------------------------
B-15b--15-14~-----16-12--------------------------------------------------
G-----------------------/14-16p14----------------------------------------
D---------------------------------17/19-17—16p14-16/17-------------------
A-------------------------------------------------------17h19p17-16------
E------------------------------------------------------------------------

rake
E------------------------------------------------------------------------
B---17-14-----------------------------------------------15-12------------
G--x-----14--------------------------------------------x-----12-/11-12p11
D-x---------/17-19p17-/17-16-14p12-14/16--------------x------------------
A----------------------------------------16h17p16-14---------------------
E------------------------------------------------------------------------

                   UB
E-------------------14---------------------------------------------------
B-------------------17b-15-15------15---------------------------22b-22b--
G-/11-9--/16-18-15-----------18-16---18-16-18-16-15-15-16-18-16----------
D------------------------------------------------------------------------
A------------------------------------------------------------------------
E------------------------------------------------------------------------

E------------------------------------------------------------------------
B-22b-22b-22b-22b-22b------22-------20--18----18-19-17-15-14-------------
G--------------------21-------19-----------18---------------------9b-----
D-----------------------21-------19--------------------------------------
A------------------------------------------------------------------------
E------------------------------------------------------------------------

E------------------------------------------------------------------------
B------------------------------17b-17-15h17p15-14h15p14------/11-12-14-15b
G—7p6-7----6-7-9---------------------------------------16b-15------------
D--------9---------------------------------------------------------------
A----------------10-9-9h10-9-7-------------------------------------------
E------------------------------------------------------------------------

E------------------------------------------------------------------------
B-15-14-15-12-14-15-16-17-19-20-22-24b-22-24-22h24p22-20-22-20h22p20-----
G------------------------------------------------------------------------
D------------------------------------------------------------------------
A------------------------------------------------------------------------
E------------------------------------------------------------------------

E------------------------------------------------------------------------
B-19h20p19--------22b-22-------------------------------------------------
G----------21b-21-------18-19b-19-18-16-----------------------12p11------
D---------------------------------------19b-17-16h17p16------------------
A-------------------------------------------------------19/21------------
E------------------------------------------------------------------------

E------------------------------------------------------------------------
B------------------------------------------------------------------------
G--/14p12—11h12p11\9—11p9p7---/7-6-4-/7-----------------------9-7-6---9b-
D-------------------------------------------------------------------9----
A-----------------------------/5-4-2-/5—5/7-9-10-10/12-10-9-7------------
E------------------------------------------------------------------------

E------------------------------------------------------------------------
B---17b-17-15b-15-14-14p12-11----11-12-14----12-14-15-17p15p14-15p14p12--
G-7---------------------------13----------15-----------------------------
D------------------------------------------------------------------------
A------------------------------------------------------------------------
E------------------------------------------------------------------------

E------------------------------------------------------------------------
B-12b-11-22b-22b-22b-22b-22--19-20-22-20b-20-19-20-19h20p19p17-17b-17----
G------------------------------------------------------------------------
D------------------------------------------------------------------------
A------------------------------------------------------------------------
E------------------------------------------------------------------------

E------------------------------------------------------------------------
B-15h17p15----------------10b-10-10b-10-8-7h8p7--------------------------
G----------18b-18b-16-14-------------------------9b~--9-7-/6-7/9-7-6\4---
D------------------------------------------------------------------------
A------------------------------------------------------------------------
E------------------------------------------------------------------------

E------------------------------------------------------------------------
B-17-15h17p15p14----17b-17p15h17----------14-12-11h12p11-----------------
G----------------16--------------12p11h12----------------12-0-/15-14p12--
D------------------------------------------------------------------------
A------------------------------------------------------------------------
E------------------------------------------------------------------------

E------------------------------------------------------------------------
B--------------17-15p14--------------------------------10b-10------------
G-----------------------16/18-19-19p18-16b-16-15-16--9---------/6-7-9----
D-16b-16p14--------------------------------------------------------------
A-----------14-----------------------------------------------------------
E------------------------------------------------------------------------

E------------------------------------------------------------------------
B------------------------------------------------------------------------
G--12-11h12p11-9b-9-7-9-9bp7-----6/7-9b-7p6------------------------------
D----------------------------9-9------------9-10-9h10p9------------------
A-------------------------------------------------------10-9-10-12-9h10p9
E------------------------------------------------------------------------

E------------------------------------------------------------------------
B--------10h12h14-14p12p10-10b-8-7h8p7-----12-13-12-13p12-10-8p7h8-------
G--------------------------------------9-7-------------------------------
D------------------------------------------------------------------------
A------------------------------------------------------------------------
E--\3/7------------------------------------------------------------------

E------------------------------------------------------------------------
B--17-15h17p15--14-22b-22-20-22-20h22p20-----20--------------------------
G----------------------------------------21b(21)21—21bp19----/16-17-------
D---------------------------------------------------------21-------------
A------------------------------------------------------------------------
E------------------------------------------------------------------------

E------------------------------------------------------------------------
B------------------------------------------------------------------------
G—19bp17--19-17h19p17--------7b~-7p6-7-6-7-6h7p6-------------------------
D------------------------------------------------7-5-4-------------------
A---------------------/10\9\7--------------------------7-5-4-----4-5b~p4-
E------------------------------------------------------------7-5---------

E------------------------------------------------------------------------
B---------------------------------------12-14-15-14h15p14p12-----22b-22b-
G----7b-5-/5-4h5p--------9b-9-7h9p7-6-7----------------------16b---------
D-----------------7-4-5~-------------------------------------------------
A------------------------------------------------------------------------
E-7~---------------------------------------------------------------------

E------------------------------------------------------------------------
B-22b-22-20-19h20p19----------22-20-19h20p19-------------20-19h20p19-17--
G--------------------21-19-18----------------21-19-18-16-----------------
D------------------------------------------------------------------------
A------------------------------------------------------------------------
E------------------------------------------------------------------------

E-----------------------------------------------------------------/19-21-
B-------------------22b-22-19-22bp19—22bp19-22b-19-19-20-20/22-20-/21-22-
G-19-18h19p18-16-15-----------------------------20-20-21-21/23-21--------
D------------------------------------------------------------------------
A------------------------------------------------------------------------
E------------------------------------------------------------------------

E-21b-21~-21-19-21-21b---------------------------------------------------
B-22b-22~--------------19-19~-12-14-15-15/17-15h17p15-14-12-11--11-12-14-
G---------21-19-21-21b-19-19~--------------------------------------------
D------------------------------------------------------------------------
A------------------------------------------------------------------------
E------------------------------------------------------------------------

E---------------7-9-10-----2~--------------------------------------------
B-12b-12bp11-12------------3~--------------------------------------------
G--------------------------4~--------------------------------------------
D--------------------------4~--------------------------------------------
A--------------------------2~--------------------------------------------
E------------------------------------------------------------------------

TABLATURE EXPLANATION
======================

-----
--x-- = death note
-----

b= Bend

\ = Slide abajo

/ = Slide arriba

p = Pull off
 
h = Hammer on

~ = Vibrato
Envía el tono de "Por que es tan dificil amar" a tu celular/móvil
Este fichero es trabajo propio de su transcriptor y representa su interpretación personal de la canción. El material contenido en esta página es
para exclusivo uso privado, por lo que se prohibe su reproducción o retransmisión, así como su uso para fines comerciales.
© LaCuerda.net · Aviso Legal · Privacidad