Tablatura para Guitarra de Rata Blanca: El sueño de la gitana
Conexión · Inscripción
Letras y Acordes
Pantalla Completa
Imprimir
Versión Texto
Añadir Favorito
Otras Versiones

Mostrar Diagramas
Desfile Automático
Manipular Acordes
Formato del Texto

Rata Blanca
El sueño de la gitana(TAB)
calidad:
rata0055
AUTOR: Walter Giardino
ALBUM: Rata Blanca
Enviado por Lualanmi
Hola Guitarristas de la Cuerda.net, soy Lualanmi de nuevo por acá,
 y bueno, en esta oportunidad les traigo una canción que me
recomendaron (Usuarios de Youtube) escuchar y tocar
 y quisiera compartir con ustedes también  esta tabs, está perfecta,
 a un 100% completa.

También me creado un audio-video que lo subí a YOUTUBE para
que tengan una referencia de esta tabs y la toquen perfecto.

Me he tomado la molestia también, de ofrecerles la digitación
correcta al ejecutar algunos solos. Para que toquen como debe
 de ser esta canción jeje.

Todo esto les he traido, espero que les sirva de algo,
cualquier comentario al respecto o duda dejo mi correo abajo.

Ahh!!
Casi lo olvido!
Aquí dejo el link del video para que practiquen la canción:
(Pueden hacer comentarios en el video también jeje)





http://www.youtube.com/watch?v=xoK5qzxXh3Q





Empecemos.....



(Estos paréntesis es la digitación, abajo explico como es esto)




     (3)(1)(1)(4)(1)(1)(3)(1)(1)(2)(1)(1)(3)(1)(1)
E|--------------------------------------------------|
B|--------------------------------------------------|
G|-- 15-12----17-12----15-12----14-12----15-12------|
D|---------12-------12-------12-------12-------12---| (2 veces)
A|--------------------------------------------------|
E|--------------------------------------------------|




   (4)(1)(1)(3)(1)(1)(4)(1)(1)(3)(1)(1)(4)(1)(1)
E|-----------------------------------------------|
B|-----------------------------------------------|
G|--12-8-----10-8-----12-8----10--8-----12-8-----|
D|--------8--------8--------8--------8--------8--|  (2 veces)
A|-----------------------------------------------|
E|-----------------------------------------------|




  (4)(1)(1)(3)(1)(1)(4)(1)(1)(3)(1)(1)(4)
E|----------------------------------------|
B|----------------------------------------|
G|-8--5-----7--5-----8--5-----7--5-----8--|
D|-------5--------5--------5--------5-----|  (2 veces)
A|----------------------------------------|
E|----------------------------------------|


   (4)(1)(1)(3)(1)(1)(4)(1)(1)(3)(1)(1)(4)(1)(1)
E|-----------------------------------------------|
B|-----------------------------------------------|
G|--11-7-----9--7-----11-7-----9--7-----11-7-----|
D|--------7--------7--------7--------7--------7--|
A|-----------------------------------------------|
E|-----------------------------------------------|


    (3)(1)(1)(4)(1)(1)(3)(1)(1)(4)(1)(1)(3)
A|---------------------------------------------|
B|--10--7-----11-7-----10-7-----11-7-----10-~--|
G|---------7--------7--------7--------7--------|
D|---------------------------------------------|
A|---------------------------------------------|
E|---------------------------------------------|



Aquí se repite de nuevo toda la INTRO, asi:




    (3)(1)(1)(4)(1)(1)(3)(1)(1)(2)(1)(1)(3)(1)(1)
E|--------------------------------------------------|
B|--------------------------------------------------|
G|--15--12----17-12----15-12----14-12----15-12------|
D|---------12-------12-------12-------12-------12---| (2 veces)
A|--------------------------------------------------|
E|--------------------------------------------------|




   (4)(1)(1)(3)(1)(1)(4)(1)(1)(3)(1)(1)(4)(1)(1)
A|-----------------------------------------------|
B|-----------------------------------------------|
G|--12-8-----10-8-----12-8----10--8-----12-8-----|
D|--------8--------8--------8--------8--------8--|  (2 veces)
A|-----------------------------------------------|
E|-----------------------------------------------|




  (4)(1)(1)(3)(1)(1)(4)(1)(1)(3)(1)(1)(4)
A|----------------------------------------|
B|----------------------------------------|
G|-8--5-----7--5-----8--5-----7--5-----8--|
D|-------5--------5--------5--------5-----|  (2 veces)
A|----------------------------------------|
E|----------------------------------------|


   (4)(1)(1)(3)(1)(1)(4)(1)(1)(3)(1)(1)(4)(1)(1)
E|-----------------------------------------------|
B|-----------------------------------------------|
G|--11-7-----9--7-----11-7-----9--7-----11-7-----|
D|--------7--------7--------7--------7--------7--|
A|-----------------------------------------------|
E|-----------------------------------------------|




    (3)  (1)  (3)  (2)
A|-----------------------------|
B|--13b---13-------------------|
G|-------------15--14----------|
D|-----------------------------|
A|-----------------------------|
E|-----------------------------|




Aquí viene la Distorsión, acompañando (todo en Semicorcheas):



A|----------------------------------|----------------------------------|
B|----------------------------------|----------------------------------|
G|----------------------------------|----------------------------------|
D|----------------------------------|----------------------------------|
A|----------------------------------|--3-3-3-3-3-3-3-3-----------------|
E|--3-3-3-3-3-3-3-3-3-3-3-3-3-3-3-3-|------------------3-3-3-3-3-3-3-3-|



E|----------------------------------|----------------------------------|
B|----------------------------------|----------------------------------|
G|----------------------------------|----------------------------------|
D|----------------------------------|----------------------------------|
A|--6-6-6-6-6-6-6-6-1-1-1-1-1-1-1-1-|----------------------------------|
E|----------------------------------|--1-1-1-1-1-1-1-1-1-1-1-1-1-1-1-1-|



E|----------------------------------|----------------------------------|
B|----------------------------------|----------------------------------|
G|----------------------------------|----------------------------------|
D|----------------------------------|----------------------------------|
A|--5-5-5-5-5-5-5-5-5-5-5-5-5-5-5-5-|--5-5-5-5-5-5-5-5-5-5-5-5-5-5-5-5-|
E|----------------------------------|----------------------------------|



E|----------------------------------|----------------------------------|
B|----------------------------------|----------------------------------|
G|----------------------------------|----------------------------------|
D|----------------------------------|----------------------------------|
A|------------------6-6-6-6-6-6-6-6-|--5-5-5-5-5-5-5-5-5-5-5-5-5-5-5-5-|
E|--3-3-3-3-3-3-3-3-----------------|----------------------------------|



E|----------------------------------|----------------------------------|
B|----------------------------------|----------------------------------|
G|----------------------------------|----------------------------------|
D|----------------------------------|----------------------------------|
A|----------------------------------|--3-3-3-3-3-3-3-3-----------------|
E|--3-3-3-3-3-3-3-3-3-3-3-3-3-3-3-3-|------------------3-3-3-3-3-3-3-3-|



E|----------------------------------|----------------------------------|
B|----------------------------------|----------------------------------|
G|----------------------------------|----------------------------------|
D|----------------------------------|----------------------------------|
A|--6-6-6-6-6-6-6-6-1-1-1-1-1-1-1-1-|----------------------------------|
E|----------------------------------|--1-1-1-1-1-1-1-1-1-1-1-1-1-1-1-1-|



E|----------------------------------|----------------------------------|
B|----------------------------------|----------------------------------|
G|----------------------------------|----------------------------------|
D|----------------------------------|----------------------------------|
A|--5-5-5-5-5-5-5-5-5-5-5-5-5-5-5-5-|--5-5-5-5-5-5-5-5-5-5-5-5-5-5-5-5-|
E|----------------------------------|----------------------------------|


E|----------------------------------|-------------------------|
B|----------------------------------|-------------------------|
G|----------------------------------|--3----5----3--2---------|
D|----------------------------------|--5----7----5--4---------|
A|------------------6-6-6-6-6-6-6-6-|-------------------------|
E|--3-3-3-3-3-3-3-3-----------------|-------------------------|



E|----------------------------------|----------------------------------|
B|----------------------------------|----------------------------------|
G|----------------------------------|----------------------------------|
D|----------------------------------|----------------------------------|
A|----------------------------------|--1-1-1-1-1-1-1-1-1-1-1-1-1-1-1-1-|
E|--1-1-1-1-1-1-1-1-1-1-1-1-1-1-1-1-|----------------------------------|



E|----------------------------------|----------------------------------|
B|----------------------------------|----------------------------------|
G|----------------------------------|----------------------------------|
D|----------------------------------|----------------------------------|
A|--5-5-5-5-5-5-5-5-5-5-5-5-5-5-5-5-|----------------------------------|
E|----------------------------------|--3-3-3-3-3-3-3-3-3-3-3-3-3-3-3-3-|



E|----------------------------------|----------------------------------|
B|----------------------------------|----------------------------------|
G|----------------------------------|----------------------------------|
D|----------------------------------|----------------------------------|
A|--6-6-6-6-6-6-6-6-6-6-6-6-6-6-6-6-|----------------------------------|
E|----------------------------------|--3-3-3-3-3-3-3-3-3-3-3-3-3-3-3-3-|



E|----------------------------------|----------------------------------|
B|----------------------------------|----------------------------------|
G|----------------------------------|----------------------------------|
D|----------------------------------|----------------------------------|
A|--6-6-6-6-6-6-6-6-----------------|--5-5-5-5-5-5-5-5-5-5-5-5-5-5-5-5-|
E|------------------5-5-5-5-5-5-5-5-|----------------------------------|



E|----------------------------------|----------------------------------|
B|----------------------------------|----------------------------------|
G|----------------------------------|----------------------------------|
D|----------------------------------|----------------------------------|
A|----------------------------------|--1-1-1-1-1-1-1-1-1-1-1-1-1-1-1-1-|
E|--1-1-1-1-1-1-1-1-1-1-1-1-1-1-1-1-|----------------------------------|



E|----------------------------------|----------------------------------|
B|----------------------------------|----------------------------------|
G|----------------------------------|----------------------------------|
D|----------------------------------|----------------------------------|
A|--5-5-5-5-5-5-5-5-5-5-5-5-5-5-5-5-|----------------------------------|
E|----------------------------------|--3-3-3-3-3-3-3-3-3-3-3-3-3-3-3-3-|



E|----------------------------------|----------------------------------|
B|----------------------------------|----------------------------------|
G|----------------------------------|----------------------------------|
D|----------------------------------|----------------------------------|
A|--6-6-6-6-6-6-6-6-6-6-6-6-6-6-6-6-|----------------------------------|
E|----------------------------------|--3-3-3-3-3-3-3-3-3-3-3-3-3-3-3-3-|



E|----------------------------------|----------------------|
B|----------------------------------|--7~----8~----8b~-----|
G|----------------------------------|----------------------|
D|----------------------------------|----------------------|
A|--6-6-6-6-6-6-6-6-----------------|----------------------|
E|------------------5-5-5-5-5-5-5-5-|----------------------|





(Aquí va de nuevo la INTRO, OBVIO ESTA PARTE PORQUE
YA LA ESCRIBÍ ARRIBA Y SE SUPONE QUE YA SE SABEN ESA PARTE)




Acá de nuevo el acompañamiento, que es un poco diferente
 al anterior acompañamiento, veánlo mejor:

E|----------------------------------|----------------------------------|
B|----------------------------------|----------------------------------|
G|----------------------------------|----------------------------------|
D|----------------------------------|----------------------------------|
A|----------------------------------|--3-3-3-3-3-3-3-3-----------------|
E|--3-3-3-3-3-3-3-3-3-3-3-3-3-3-3-3-|------------------3-3-3-3-3-3-3-3-|



E|----------------------------------|----------------------------------|
B|----------------------------------|----------------------------------|
G|----------------------------------|----------------------------------|
D|----------------------------------|----------------------------------|
A|--6-6-6-6-6-6-6-6-1-1-1-1-1-1-1-1-|----------------------------------|
E|----------------------------------|--1-1-1-1-1-1-1-1-1-1-1-1-1-1-1-1-|



E|----------------------------------|----------------------------------|
B|----------------------------------|----------------------------------|
G|----------------------------------|----------------------------------|
D|----------------------------------|----------------------------------|
A|--5-5-5-5-5-5-5-5-5-5-5-5-5-5-5-5-|--5-5-5-5-5-5-5-5-5-5-5-5-5-5-5-5-|
E|----------------------------------|----------------------------------|



E|----------------------------------|-------------------------|
B|----------------------------------|-------------------------|
G|----------------------------------|--7----5----5--3---------|
D|----------------------------------|--8----7----5--4~--------|
A|------------------6-6-6-6-6-6-6-6-|-------------------------|
E|--3-3-3-3-3-3-3-3-----------------|-------------------------|



E|----------------------------------|----------------------------------|
B|----------------------------------|----------------------------------|
G|----------------------------------|----------------------------------|
D|----------------------------------|----------------------------------|
A|----------------------------------|--3-3-3-3-3-3-3-3-----------------|
E|--3-3-3-3-3-3-3-3-3-3-3-3-3-3-3-3-|------------------3-3-3-3-3-3-3-3-|



E|----------------------------------|----------------------------------|
B|----------------------------------|----------------------------------|
G|----------------------------------|----------------------------------|
D|----------------------------------|----------------------------------|
A|--6-6-6-6-6-6-6-6-1-1-1-1-1-1-1-1-|----------------------------------|
E|----------------------------------|--1-1-1-1-1-1-1-1-1-1-1-1-1-1-1-1-|



E|----------------------------------|----------------------------------|
B|----------------------------------|----------------------------------|
G|----------------------------------|----------------------------------|
D|----------------------------------|----------------------------------|
A|--5-5-5-5-5-5-5-5-5-5-5-5-5-5-5-5-|--5-5-5-5-5-5-5-5-5-5-5-5-5-5-5-5-|
E|----------------------------------|----------------------------------|



E|----------------------------------|----------------------------------|
B|----------------------------------|----------------------------------|
G|----------------------------------|----------------------------------|
D|----------------------------------|----------------------------------|
A|------------------6-6-6-6-6-6-6-6-|--5-5-5-5-5-5-5-5-5-5-5-5-5-5-5-5-|
E|--3-3-3-3-3-3-3-3-----------------|----------------------------------|



E|----------------------------------|----------------------------------|
B|----------------------------------|----------------------------------|
G|----------------------------------|----------------------------------|
D|----------------------------------|----------------------------------|
A|----------------------------------|--1-1-1-1-1-1-1-1-1-1-1-1-1-1-1-1-|
E|--1-1-1-1-1-1-1-1-1-1-1-1-1-1-1-1-|----------------------------------|



E|----------------------------------|----------------------------------|
B|----------------------------------|----------------------------------|
G|----------------------------------|----------------------------------|
D|----------------------------------|----------------------------------|
A|--5-5-5-5-5-5-5-5-5-5-5-5-5-5-5-5-|----------------------------------|
E|----------------------------------|--3-3-3-3-3-3-3-3-3-3-3-3-3-3-3-3-|



E|----------------------------------|----------------------------------|
B|----------------------------------|----------------------------------|
G|----------------------------------|----------------------------------|
D|----------------------------------|----------------------------------|
A|--6-6-6-6-6-6-6-6-6-6-6-6-6-6-6-6-|----------------------------------|
E|----------------------------------|--3-3-3-3-3-3-3-3-3-3-3-3-3-3-3-3-|



E|----------------------------------|----------------------------------|
B|----------------------------------|----------------------------------|
G|----------------------------------|----------------------------------|
D|----------------------------------|----------------------------------|
A|--6-6-6-6-6-6-6-6-----------------|--5-5-5-5-5-5-5-5-5-5-5-5-5-5-5-5-|
E|------------------5-5-5-5-5-5-5-5-|----------------------------------|



E|----------------------------------|----------------------------------|
B|----------------------------------|----------------------------------|
G|----------------------------------|----------------------------------|
D|----------------------------------|----------------------------------|
A|----------------------------------|--1-1-1-1-1-1-1-1-1-1-1-1-1-1-1-1-|
E|--1-1-1-1-1-1-1-1-1-1-1-1-1-1-1-1-|----------------------------------|



E|----------------------------------|----------------------------------|
B|----------------------------------|----------------------------------|
G|----------------------------------|----------------------------------|
D|----------------------------------|----------------------------------|
A|--5-5-5-5-5-5-5-5-5-5-5-5-5-5-5-5-|----------------------------------|
E|----------------------------------|--3-3-3-3-3-3-3-3-3-3-3-3-3-3-3-3-|



E|----------------------------------|----------------------------------|
B|----------------------------------|----------------------------------|
G|----------------------------------|----------------------------------|
D|----------------------------------|----------------------------------|
A|--6-6-6-6-6-6-6-6-6-6-6-6-6-6-6-6-|----------------------------------|
E|----------------------------------|--3-3-3-3-3-3-3-3-3-3-3-3-3-3-3-3-|


                                     1/
                                   (aquí usas palanca
                                    de trémolo [-1])

E|----------------------------------|-------------------|
B|----------------------------------|-------------------|
G|----------------------------------|-------------------|
D|----------------------------------|-------------------|
A|--6-6-6-6-6-6-6-6-----------------|--5----------------|
E|------------------5-5-5-5-5-5-5-5-|-------------------|





SOLO:





E|-------------------------|---------------------------|
B|-------------------------|---------------------------|
G|--7----7--7--7-----------|--7---8--7h8p7---5--7------|
D|-------------------------|---------------------------|
A|-------------------------|---------------------------|
E|-------------------------|---------------------------|




E|----------------------------|---------------------------|
B|----------------------------|---------------------------|
G|--7-8--7h8p7---5--7---5-----|---------------------------|
D|----------------------------|--7h8--7--8---7--5---------|
A|----------------------------|---------------------------|
E|----------------------------|---------------------------|




E|--------------------------------------|---------------------------|
B|--------------------------------------|---------------------------|
G|--5h7-7-7-7-7-5h7-7-5h7-7-5h7-7-7-----|--8---7h8p7---5--7---------|
D|--------------------------------------|---------------------------|
A|--------------------------------------|---------------------------|
E|--------------------------------------|---------------------------|




E|----------------------------|---------------------------|
B|-------6--------------------|---------------------------|
G|--8---------8--7----5-------|---------------------------|
D|----------------------------|--7h8-- 7---8---7--5-------|
A|----------------------------|---------------------------|
E|----------------------------|---------------------------|


 Aquí tengan cuidado con la digitación...


  (3)(1)(3)(4)(1)(3)(4)(1)(3)(4)(1)(3)(4)(1)(3)(4)
E|------------------------------------------------|
B|------------------------------------------------|
G|----------------------5--------5--7-----5--7--8-|
D|-7--5--7--8--5--7--8-----7--8--------8----------|
A|------------------------------------------------|
E|------------------------------------------------|



   (4)(2)(4)(3)(2)(4)(3)(1)(3)
E|--------------------------------|
B|--8--6--------6-----------------|
G|--------8--7-----8--7--5--7~----|
D|--------------------------------|
A|--------------------------------|
E|--------------------------------|



   (1)(2)(4)(1)(2)(4)(4)(1)(3)(4)(1)(3)(4)(1)(3)(1)

E|--------------------------------8--------8--10-8-|
B|--7--8--10-7--8-10-11--8--10-11---10-11----------|
G|-------------------------------------------------|
D|-------------------------------------------------|
A|-------------------------------------------------|
E|-------------------------------------------------|



   (4)(3)(1)(4)(3)(1)(3)(2)(1)

E|--------8---------------------------|
B|--11-10----11-10-8------------------|
G|--------------------10-8--7~--------|
D|------------------------------------|
A|------------------------------------|
E|------------------------------------|


   (3)(1)(1)(4)(1)(1)(3)(1)(1)(4)(4)(4)(3)(1)(1)

E|--11-8-----13-8-----11-8-----13-8-----11-8-----|
B|--------8--------8--------8--------8--------8--|
G|-----------------------------------------------|
D|-----------------------------------------------|
A|-----------------------------------------------|
E|-----------------------------------------------|



   (4)(1)(1)(3)(1)(1)(4)(1)(1)(3)(1)(1)(4)(1)(1)

E|--6--3-----5--3-----6--3-----5--3-----6--3-----|
B|--------3--------3--------3--------3--------3--|
G|-----------------------------------------------|
D|-----------------------------------------------|
A|-----------------------------------------------|
E|-----------------------------------------------|


  (Se necesita práctica en esta parte que sigue,
hasta que les salga bien, no es dificil,
todo estÁ en el 9-6-9-6 Y un juego de movimiento de pua es todo)


  (4)(1) (3)(1)(4)(1)(4)(1)(3)(1)(4)(1)(3)(1)(4)(1)(3)(4)

E|-6p3-------3h9---6--9--6-----6--12-9-----9--15-12----15-|
B|--------5-----------------8-----------11----------14----|
G|--------------------------------------------------------|
D|--------------------------------------------------------|
A|--------------------------------------------------------|
E|--------------------------------------------------------|



   (4)        (3)(1)(3)

E|--15~-------14-12-14-----------|
B|-------------------------------|
G|-------------------------------|
D|-------------------------------|
A|-------------------------------|
E|-------------------------------|


 Esta parte es full velocidad pero fácil, vean:


 (4)(2)(1)(4)(2)(1)(4)(2)(1)(4)(2)(1)(4)(2)(1)(4)(2)(1)(4)(2)(1)(4)(2)(1)

E|8--6--5--8--6--5--8--6--5--8--6--5--8--6--5--8--6--5--8--6--5--8--6--5-|
B|-----------------------------------------------------------------------|
G|-----------------------------------------------------------------------|
D|-----------------------------------------------------------------------|
A|-----------------------------------------------------------------------|
E|-----------------------------------------------------------------------|




    (4)(3)(1)...y asi sucesivamente

E|--10--8--6--10-8-6-10-8-6-10-8-6-10-8-6-10-8-6-10-8-6-10-8-6-|
B|-------------------------------------------------------------|
G|-------------------------------------------------------------|
D|-------------------------------------------------------------|
A|-------------------------------------------------------------|
E|-------------------------------------------------------------|




   (4)(2)(1)...

E|--5--3--2--5-3-2-5-3-2-5-3-2-5-3-2-5-3-2-5-3-2-5-3-2-|
B|-----------------------------------------------------|
G|-----------------------------------------------------|
D|-----------------------------------------------------|
A|-----------------------------------------------------|
E|-----------------------------------------------------|




   (4)(3)(1)(4)(2)(1)(4)(3)(1)(4)(2)(1)(opcional)

E|--6--5--3-----------6--5--3------------14b------|--18-------17-15-15~---|
B|-----------6--4--3-----------6--4--3------------|-----------------------|
G|------------------------------------------------|-----------------------|
D|------------------------------------------------|-----------------------|
A|------------------------------------------------|-----------------------|
E|------------------------------------------------|-----------------------|









E|--18-------17-15-15~--------|--18---17---15----------15h17p15----17--|
B|----------------------------|------------------17--------------------|
G|----------------------------|----------------------------------------|
D|----------------------------|----------------------------------------|
A|----------------------------|----------------------------------------|
E|----------------------------|----------------------------------------|




E|--15-----14-------------------|-----------------------------|
B|---------------16--15~--------|--13---15---16--13~----------|
G|------------------------------|-----------------------------|
D|------------------------------|-----------------------------|
A|------------------------------|-----------------------------|
E|------------------------------|-----------------------------|




E|-----------------------------|-----------------------------|
B|--16----15----13-------------|--15----13-------------------|
G|------------------15~--------|--------------15--14~--------|
D|-----------------------------|-----------------------------|
A|-----------------------------|-----------------------------|
E|-----------------------------|-----------------------------|




E|-----------------------------|------------------17~--------|
B|--13-------------------------|--13----15----16-------------|
G|--------15----14--15~--------|-----------------------------|
D|-----------------------------|-----------------------------|
A|-----------------------------|-----------------------------|
E|-----------------------------|-----------------------------|




E|------------------15~--------|----------------------------------|
B|--18----16----15-------------|--13----15----16--13----15----16--|
G|-----------------------------|----------------------------------|
D|-----------------------------|----------------------------------|
A|-----------------------------|----------------------------------|
E|-----------------------------|----------------------------------|




E|-12h15p12----12----18p15-----15---21p18----18--18p15------15-15--|
B|----------14-------------17-------------20-----------17----------|
G|-----------------------------------------------------------------|
D|-----------------------------------------------------------------|
A|-----------------------------------------------------------------|
E|-----------------------------------------------------------------|




E|--15--------14--------|
B|----------------------|
G|------------------6b--|
D|----------------------|
A|----------------------|
E|----------------------|


  Otra vez el acompañamiento:

E|----------------------------------|----------------------------------|
B|----------------------------------|----------------------------------|
G|----------------------------------|----------------------------------|
D|----------------------------------|----------------------------------|
A|----------------------------------|--3-3-3-3-3-3-3-3-----------------|
E|--3-3-3-3-3-3-3-3-3-3-3-3-3-3-3-3-|------------------3-3-3-3-3-3-3-3-|



E|----------------------------------|----------------------|
B|----------------------------------|--6----8----8b--------|
G|----------------------------------|----------------------|
D|----------------------------------|----------------------|
A|--6-6-6-6-6-6-6-6-1-1-1-1-1-1-1-1-|----------------------|
E|----------------------------------|----------------------|



E|----------------------------------|----------------------------------|
B|----------------------------------|----------------------------------|
G|----------------------------------|----------------------------------|
D|----------------------------------|----------------------------------|
A|--5-5-5-5-5-5-5-5-5-5-5-5-5-5-5-5-|--5-5-5-5-5-5-5-5-5-5-5-5-5-5-5-5-|
E|----------------------------------|----------------------------------|



E|----------------------------------|----------------------------------|
B|----------------------------------|----------------------------------|
G|----------------------------------|----------------------------------|
D|----------------------------------|----------------------------------|
A|------------------6-6-6-6-6-6-6-6-|--5-5-5-5-5-5-5-5-5-5-5-5-5-5-5-5-|
E|--3-3-3-3-3-3-3-3-----------------|----------------------------------|



E|----------------------------------|----------------------------------|
B|----------------------------------|----------------------------------|
G|----------------------------------|----------------------------------|
D|----------------------------------|----------------------------------|
A|----------------------------------|--3-3-3-3-3-3-3-3-----------------|
E|--3-3-3-3-3-3-3-3-3-3-3-3-3-3-3-3-|------------------3-3-3-3-3-3-3-3-|



E|----------------------------------|----------------------------------|
B|----------------------------------|----------------------------------|
G|----------------------------------|----------------------------------|
D|----------------------------------|----------------------------------|
A|--6-6-6-6-6-6-6-6-1-1-1-1-1-1-1-1-|----------------------------------|
E|----------------------------------|--1-1-1-1-1-1-1-1-1-1-1-1-1-1-1-1-|



E|----------------------------------|----------------------------------|
B|----------------------------------|----------------------------------|
G|----------------------------------|----------------------------------|
D|----------------------------------|----------------------------------|
A|--5-5-5-5-5-5-5-5-5-5-5-5-5-5-5-5-|--5-5-5-5-5-5-5-5-5-5-5-5-5-5-5-5-|
E|----------------------------------|----------------------------------|



E|----------------------------------|----------------------------------|
B|----------------------------------|----------------------------------|
G|----------------------------------|----------------------------------|
D|----------------------------------|----------------------------------|
A|------------------6-6-6-6-6-6-6-6-|--5-5-5-5-5-5-5-5-5-5-5-5-5-5-5-5-|
E|--3-3-3-3-3-3-3-3-----------------|----------------------------------|



E|----------------------------------|----------------------------------|
B|----------------------------------|----------------------------------|
G|----------------------------------|----------------------------------|
D|----------------------------------|----------------------------------|
A|----------------------------------|--1-1-1-1-1-1-1-1-1-1-1-1-1-1-1-1-|
E|--1-1-1-1-1-1-1-1-1-1-1-1-1-1-1-1-|----------------------------------|



E|----------------------------------|----------------------------------|
B|----------------------------------|----------------------------------|
G|----------------------------------|----------------------------------|
D|----------------------------------|----------------------------------|
A|--5-5-5-5-5-5-5-5-5-5-5-5-5-5-5-5-|----------------------------------|
E|----------------------------------|--3-3-3-3-3-3-3-3-3-3-3-3-3-3-3-3-|



E|----------------------------------|----------------------------------|
B|----------------------------------|----------------------------------|
G|----------------------------------|----------------------------------|
D|----------------------------------|----------------------------------|
A|--6-6-6-6-6-6-6-6-6-6-6-6-6-6-6-6-|----------------------------------|
E|----------------------------------|--3-3-3-3-3-3-3-3-3-3-3-3-3-3-3-3-|



E|----------------------------------|----------------------------------|
B|----------------------------------|----------------------------------|
G|----------------------------------|----------------------------------|
D|----------------------------------|----------------------------------|
A|--6-6-6-6-6-6-6-6-----------------|--5-5-5-5-5-5-5-5-5-5-5-5-5-5-5-5-|
E|------------------5-5-5-5-5-5-5-5-|----------------------------------|



E|----------------------------------|----------------------------------|
B|----------------------------------|----------------------------------|
G|----------------------------------|----------------------------------|
D|----------------------------------|----------------------------------|
A|----------------------------------|--1-1-1-1-1-1-1-1-1-1-1-1-1-1-1-1-|
E|--1-1-1-1-1-1-1-1-1-1-1-1-1-1-1-1-|----------------------------------|



E|----------------------------------|----------------------------------|
B|----------------------------------|----------------------------------|
G|----------------------------------|----------------------------------|
D|----------------------------------|----------------------------------|
A|--5-5-5-5-5-5-5-5-5-5-5-5-5-5-5-5-|----------------------------------|
E|----------------------------------|--3-3-3-3-3-3-3-3-3-3-3-3-3-3-3-3-|



E|----------------------------------|----------------------------------|
B|----------------------------------|----------------------------------|
G|----------------------------------|----------------------------------|
D|----------------------------------|----------------------------------|
A|--6-6-6-6-6-6-6-6-6-6-6-6-6-6-6-6-|----------------------------------|
E|----------------------------------|--3-3-3-3-3-3-3-3-3-3-3-3-3-3-3-3-|



E|----------------------------------|----------------------|
B|----------------------------------|--7~----8~----8b~-----|
G|----------------------------------|----------------------|
D|----------------------------------|----------------------|
A|--6-6-6-6-6-6-6-6-----------------|----------------------|
E|------------------5-5-5-5-5-5-5-5-|----------------------|






  Aquí otra vez la INTRO, voy a escribirla igual
para que no se confundan, ya me entienden de que hablo:





     (3)(1)(1)(4)(1)(1)(3)(1)(1)(2)(1)(1)(3)(1)(1)
E|--------------------------------------------------|
B|--------------------------------------------------|
G|-- 15-12----17-12----15-12----14-12----15-12------|
D|---------12-------12-------12-------12-------12---| (2 veces)
A|--------------------------------------------------|
E|--------------------------------------------------|




   (4)(1)(1)(3)(1)(1)(4)(1)(1)(3)(1)(1)(4)(1)(1)
E|-----------------------------------------------|
B|-----------------------------------------------|
G|--12-8-----10-8-----12-8----10--8-----12-8-----|
D|--------8--------8--------8--------8--------8--|  (2 veces)
A|-----------------------------------------------|
E|-----------------------------------------------|




  (4)(1)(1)(3)(1)(1)(4)(1)(1)(3)(1)(1)(4)
E|----------------------------------------|
B|----------------------------------------|
G|-8--5-----7--5-----8--5-----7--5-----8--|
D|-------5--------5--------5--------5-----|  (2 veces)
A|----------------------------------------|
E|----------------------------------------|


   (4)(1)(1)(3)(1)(1)(4)(1)(1)(3)(1)(1)(4)(1)(1)
E|-----------------------------------------------|
B|-----------------------------------------------|
G|--11-7-----9--7-----11-7-----9--7-----11-7-----|
D|--------7--------7--------7--------7--------7--|
A|-----------------------------------------------|
E|-----------------------------------------------|


    (3)(1)(1)(4)(1)(1)(3)(1)(1)(4)(1)(1)(3)
E|---------------------------------------------|
B|--10--7-----11-7-----10-7-----11-7-----10-~--|
G|---------7--------7--------7--------7--------|
D|---------------------------------------------|
A|---------------------------------------------|
E|---------------------------------------------|



     (3)(1)(1)(4)(1)(1)(3)(1)(1)(2)(1)(1)(3)(1)(1)
E|--------------------------------------------------|
B|--------------------------------------------------|
G|-- 15-12----17-12----15-12----14-12----15-12------|
D|---------12-------12-------12-------12-------12---| (2 veces)
A|--------------------------------------------------|
E|--------------------------------------------------|




   (4)(1)(1)(3)(1)(1)(4)(1)(1)(3)(1)(1)(4)(1)(1)E
E|-----------------------------------------------|
B|-----------------------------------------------|
G|--12-8-----10-8-----12-8----10--8-----12-8-----|
D|--------8--------8--------8--------8--------8--|  (2 veces)
A|-----------------------------------------------|
E|-----------------------------------------------|




  (4)(1)(1)(3)(1)(1)(4)(1)(1)(3)(1)(1)(4)
E|----------------------------------------|
B|----------------------------------------|
G|-8--5-----7--5-----8--5-----7--5-----8--|
D|-------5--------5--------5--------5-----|  (2 veces)
A|----------------------------------------|
E|----------------------------------------|








E|---------------------------|----------------------------|
B|--8b----------11--10--11b--|--15--13--15b---------------|
G|---------------------------|----------------------------|
D|---------------------------|----------------------------|
A|---------------------------|----------------------------|
E|---------------------------|----------------------------|







E|-----------------------------------------------------|
B|-----------------------------------------------------|
G|--7--7--7--7--5--5--5--5-----------------------------|
D|--------------------------8--8--8--8--7--7--7--7--5--|
A|--------------------------------------------------5--|
E|--------------------------------------------------3--|








 ______________________
| Leyenda              |
|                      |
|                      |
|                      |
| B   : Bend           |
| br  : Bend release   |
| p,h : Hammer         |
| /   : Slide          |
| ~   : Vibrato        |
|                      |
| LA digitación        |
| es esta:             |
|                      |
|   (4): Meñique       |
|   (3): Anular        |
|   (2): Medio         |
|   (1): ïndice        |
|                      |
|                      |
| lualanmi@gmail.com   |
|                      |
|                      |
|______________________|




Saludos para mis mejores amigos de Chulucanas, UNP,
 Piura, Sullana, Talara, Paita, Lima, etc etc:

Manuel, Elver, Luz, Mary, Jhon, Damaris, Alisson,
David, Helen, Germán, Mario, Yerson, Carol, Evelyn,
 Katerine, Cinthia, Frank, Jorge, Victor, etc etc
Mis 'manos del alma :)




_______________________________________________________
Envía el tono de "El sueño de la gitana" a tu celular/móvil
Este fichero es trabajo propio de su transcriptor y representa su interpretación personal de la canción. El material contenido en esta página es
para exclusivo uso privado, por lo que se prohibe su reproducción o retransmisión, así como su uso para fines comerciales.
© LaCuerda.net · Aviso Legal · Privacidad