Letra y Acordes de Ramon Ayala: No porque seas tú
Conexión · Inscripción
Letras y Acordes
Pantalla Completa
Imprimir
Versión Texto
Añadir Favorito
Otras Versiones

Mostrar Diagramas
Desfile Automático
Manipular Acordes
Formato del Texto


Ramon Ayala
No porque seas tú
calidad:
raya0011
AUTOR: Faviola Ortiz
ALBUM: Debajo de Aquel Arbol
Enviado por vege
Hace tiempo mande mi version de esta cancion pero me di
cuenta que no estaba tan bien como creia,
asi que les mando la que considero la buena.

Intro:


  >1a. parte< >2da. parte< >3ra. parte<
e|-----------|----------|--------------------------|
b|-----------|----------|-6-6-6-6-6-3-3-3-3-3-(x4)-|
g|-3-5-7-3---|---3-5-3--|--------------------------|
d|---------3-|----------|--------------------------|
a|-----------|----------|--------------------------|
e|-----------|----------|--------------------------|

e|--------------------------|-1----|
b|-4-4-4-4-4-1-1-1-1-1-(x2)-|------| Se repite >3ra parte<
g|--------------------------|---3--|
d|--------------------------|------|
a|--------------------------|------|
e|--------------------------|------|


 PORQUE NO >1ra parte<

 -Remata A#-Cm-A#-

A# No porque seas tu a quien amo mas
Cm voy a soportar
F7 A# una mentira mas PORQUE NO >1ra parte< -Remata A#-Cm-A#- No porque seas tu a quien quiero mas te voy a aguantar
A#7 otro capricho mas
D# Porque ya me canse
D#m A# de estarte esperando
Cm F7 A# A#7 que te quedes a mi lado Porque ya me canse de estarte rogando que me sigas amando -Se repite todo el intro- =Tu sabes que te quiero, por eso te aprovechas crees que te voy a aguantar tus mentiras, tus caprichos, tu falsedad... y sabes que si te los voy a aguantar= Porque ya me canse... PORQUE NO Ahi esta, la revise junto con la original y suena muuy similar, les invito a que lo comprueben. Cualquier duda y/o comentario no dudes en mandarlo a: vege@atame.org
Este fichero es trabajo propio de su transcriptor y representa su interpretación personal de la canción. El material contenido en esta página es
para exclusivo uso privado, por lo que se prohibe su reproducción o retransmisión, así como su uso para fines comerciales.
© LaCuerda.net · Aviso Legal · Privacidad