Tablatura para Guitarra de Raly Barrionuevo: Zamba y acuarela
Conexión · Inscripción
Letras y Acordes
Pantalla Completa
Imprimir
Versión Texto
Añadir Favorito
Otras Versiones

Mostrar Diagramas
Desfile Automático
Manipular Acordes
Formato del Texto

Raly Barrionuevo
Zamba y acuarela(TAB)
calidad:
rbar0052
AUTOR: Raly Barrionuevo  corregir
ALBUM: desconocido
Enviado por victor
Hola a todos , aca les dejo mi vercion de zamba y acuarela , espero
que puedan tocarla , a mi me sale bien , tengo otros temas aqui :
SOLO TUS OJOS , ALMA DE REZABAILES
Estos son los arpegios que se tocan en cada nota , hasta donde dice,
- como un cometa en la brisa RIFF1- tmb se toca SOL6 en las partes
sueltas donde aparece, antes de la segunda estrofa, antes de LAm7(9)
antes del solo , al final.

          SOL6
1------------0-----0-----
2--------3-----3-----3---
3------0---0-----0-------
4------------------------
5----2-------------------
6--3---------------------
          LAm7
 1------------0-----0-----
 2--------1-----1-----1---
 3------0---0-----0-------
 4----2-------------------
 5--0---------------------
 6------------------------
          REsus2
 1------------0-----0-----
 2--------3-----3-----3---
 3------2---2-----2-------
 4----0-------------------
 5------------------------
 6--0---------------------
          REm7
 1------------1-----1-----
 2--------1-----1-----1---
 3----2-----2-----2-------
 4--0---0-----------------
 5------------------------
 6------------------------
 INTRO: SOL6 x4
           LAm7           REsus2
  Con tu pollera que vuela,
              SOL6          SOL6
  bailo ésta zamba sin prisa,
         LAm               REsus2
  tus movimientos me llevan
            REm7            RIFF 1
  como un cometa en la brisa,

  DO        RE         SIm   SIm/DO (+1)
  tus movimientos me llevan
  LAm7         RE               SOL6
      como un cometa en la brisa.
             ( RASGUIDO )

  LAm7(9)                        RIFF 2
          Ya me estoy acomodando
           SOL                RIFF3
  en este instante del tiempo,
          LAm7                  (RE)(RE)
  tus pies dan vueltas y vueltas,
        REm7               SOL
  tus labios los besa el viento,
  DOmaj7         RE         SIm   SIm/DO
  tus pies dan vueltas y vueltas,
  LAm7        RE
      tus labios los besa el viento...
                                                   DO
 1--3---3-5----5-7--------8/10-8-10-10-10-10-10----12-10---
 2-------------------8-7-----------------------------------
 3----2-----4------6------8/10-8-10-10-10-10-10----12-10---
 4---------------------------------------------------------
 5---------------------------------------------------------
 6---------------------------------------------------------
  DO                   RE
  Esta zamba hecha miel
                              SOL
  se hace una hoguera en la distancia,
  DOmaj7            REmaj7         SOL         MI7
  quiero hacerte el amor en las mańanas de Santiago,
    LAm             RE        REm7   SOL
  pintar con tu acuarela mis oca____asos,
   DO               RE              SIm         MI7
  quiero hacerte el amor en las mańanas de Santiago,
    LAm7      RE                 SOL6
  amanecerme zamba entre tus brazos.
  SOLO:
 1--7-7-----(7)-7---7-7h8p7---8--------------------------
 2------(8)-----------------8---7-7-8-8-7---7-8-7-10-----
 3----------------9-----------------------9----------7---
 4-------------------------------------------------------
 5-------------------------------------------------------
 6-------------------------------------------------------
                                       SOL SOL
 1----------------------3-3/5-4---------3--3--
 2--5-5/6-5-3-3-------5---------3-1-0---3--3--
 3--------------5-4-5-------------------0--0--
 4--------------------------------------------
 5--------------------------------------------
 6--------------------------------------3--3--
   SOL   LAm7           (+2) RE
  Y no resisto acercarme
            SOL
  hacia tu cuerpo que huele
            LAm7         RE
  a una florcita del pago
                  REm7         SOL
  que entre los montes florece,
  DOmaj7     RE       SIm SIm/DO
  a una florcita del pago
  LAm7            RE        SOL
      que entre los montes florece.
  SOL     LAm7           (+2) RE
  Sigue girando la zamba,
          SOL
  sigo asentado en tu pecho,
            LAm7           RE
  te enredo con mi pańuelo,
             REm7           RIFF1
  me enredas con tu silencio,
  DO         RE        SIm  SIm/DO
  te enredo con mi pańuelo,
  LAm7       RE
  me enredas con tu silencio.
 1--3---3-5----5-7--------8/10-8-10-10-10-10-10----12-10---
 2-------------------8-7-----------------------------------
 3----2-----4------6------8/10-8-10-10-10-10-10----12-10---
 4---------------------------------------------------------
 5---------------------------------------------------------
 6---------------------------------------------------------

  DO                   (+2)  RE
  Esta zamba hecha miel
                              SOL
  se hace una hoguera en la distancia,
  DOmaj7            REmaj7         SOL         MI7
  quiero hacerte el amor en las mańanas de Santiago,
    LAm             RE        REm7   SOL
  pintar con tu acuarela mis oca____asos,
   DO               RE              SIm         MI7
  quiero hacerte el amor en las mańanas de Santiago,
    LAm7      RE                 SOL6
  amanecerme zamba entre tus brazos.
  FINAL : SOL6 repite...

         RIFF 1                        (+1)
 1-----0-----0-----0-----        1--------0------
 2-----------------------        2--------1------
 3--------1--------------        3--------0------
 4-----------------------        4--------2------
 5--------------2--------        5--------0------
 6--3--------------------        6---0-3---------
         RIFF 2                        (+2)
 1-----------2-3-5-------        1---------------
 2---------3-------------        2---------------
 3-----------------------        3---------------
 4--2-1-0----------------        4-----2-1-0-----
 5-----------------------        5---------------
 6-----------------------        6---------------
         RIFF 3
 1--5/7--1/3--3-4-3-4----
 2-----------------------
 3--5/7--1/3--4-4-4-4----
 4-----------------------
 5-----------------------
 6-----------------------
 NOTAS:
   DOmaj7
 1-  7
 2-  8
 3-  9
 4-  10
 5-  x
 6-  x

   REmaj7
 1-  5
 2-  7
 3-  6
 4-  7
 5-  5
 6-  x
    SIm/DO
 1-  2
 2-  3
 3-  5
 4-  4
 5-  2
 6-  x

   LAm7(9)
 1- 7
 2- 5
 3- 5
 4- 5
 5- 7
 6- x




 Espero que les sirva, escribanme si la mejoran ustedes.
 avisen si hacen arreglos , para putiarme o alagarme , jejeje
Envía el tono de "Zamba y acuarela" a tu celular/móvil
Este fichero es trabajo propio de su transcriptor y representa su interpretación personal de la canción. El material contenido en esta página es
para exclusivo uso privado, por lo que se prohibe su reproducción o retransmisión, así como su uso para fines comerciales.
© LaCuerda.net · Aviso Legal · Privacidad