Tablatura para Guitarra de Rafaga: Muero de frío
Conexión · Inscripción
Letras y Acordes
Pantalla Completa
Imprimir
Versión Texto
Añadir Favorito
Otras Versiones

Mostrar Diagramas
Desfile Automático
Manipular Acordes
Formato del Texto

Rafaga
Muero de frío(TAB)
calidad:
rafa0223
AUTOR: Rafaga  corregir
ALBUM: desconocido
Enviado por Daniel
aqui les dejo esta rola que esta muy padre aunque ya tiene un tiempesito
esta buena y pues con esa tambien me acuerdo mucho de mi novia Sonia asi
que lleva dedicacion para ella que es la que me inspira con la musica .



(Empieza solo la guitarra con un efecto limpio con un poco chorus)


Em                      D
Necesito decir que te amo,
               C
hablarte al oido
             G    D     Em
decirte mi amoooooooor...


(A qui con un distor muy moderado con un poco de Chorus,
delay pinpong, y un buen Reverd)

(Nomenclatura de los solos)
H= hammer
/= slide
h= Harmonico
Tp= Tremolo de la Palanca de a guitarra


E|-------------7h-----12hTp--|
B|----------5----------------|
G|---------------------------|
D|-------9-------------------|
A|-5/7hTp--------------------|
E|---------------------------|

E|--14/15b^-14--------------------------------|
B|-------------15-13v-17b^-15b----------------|
G|-----------------------------14v-14H16bTpx2-|
D|--------------------------------------------|
A|--------------------------------------------|
E|--------------------------------------------|

E|--14/15b^-14---------------------------------|
B|-------------15-13v-17b^-15b-----------------|
G|-----------------------------14v-14H16bT-----|
D|---------------------------------------------|
A|---------------------------------------------|
E|---------------------------------------------|

A|-------------------|
B|-------------------|
G|--7--9--9/7/5------|
D|--7--9--9/7/5--2---|
A|--5--7--7/5/3--2---|
E|-------------------|

(A qui la guitarra otra vez con un efecto limpio con un poco chorus)


Em                      D
Necesito decir que te amo,
               C
hablarte al oido
             G     D
decirte mi amoooooooor...


Em                      D
Necesito que sepas que eres
                  C
el angel que siempre
              G   D
me cura el dolooooor


Em                              D
Solamente te tengo en mi almohada
                 C
estas en mis sueños,
           G             D
en cada rincon de mi corazon
Em                    D
solamente conosco la casa
                  C         D           G
que habitas de noche. cuando sueño con vooos

         C   D    Em
Muero de friiiio, amor
         C   D    Em
ven abrigar mi corazooon
         C   D    Em
solo te tengo en mi ilusion
         C   D(pausa)            Em
beso tu cuerpo. cuando sueño con vos

(Aqui otra vez con un distor muy moderado con un poco de Chorus,
delay pinpong, y un buen Reverd)


E|--14/15b^-14--------------------------------|
B|-------------15-13v-17b^-15b----------------|
G|-----------------------------14v-14H16bTpx2-|
D|--------------------------------------------|
A|--------------------------------------------|
E|--------------------------------------------|

E|--14/15b^-14---------------------------------|
B|-------------15-13v-17b^-15b-----------------|
G|-----------------------------14v-14H16bT-----|
D|---------------------------------------------|
A|---------------------------------------------|
E|---------------------------------------------|


A|-------------------|
B|-------------------|
G|--7--9--9/7/5------|
D|--7--9--9/7/5---2--|
A|--5--7--7/5/3---2--|
E|-------------------|


Em                       D
Cada noche invades mi mente
               C                 G  D
vives en un mundo, tan lleno de amooooor
Em                         D
tu me das la dulzura que siempre
             C            G  D
anhelo mi alma, y mi corazoooon


Em                              D
Solamente te tengo en mi almohada
                 C
estas en mis sueños,
           G             D
en cada rincon de mi corazooon
Em                    D
solamente conosco la casa
                  C         D           G
que habitas de noche. cuando sueño con vooos

         C   D    Em
Muero de friiiio, amor
         C   D    Em
ven abrigar mi corazooon
         C   D    Em
solo te tengo en mi ilusion
         C   D(pausa)            Em
beso tu cuerpo. cuando sueño con vos

(A qui con un distor muy moderado con un poco de Chorus,
delay pinpong, y un buen Reverd
aquí es la escala pentatónica de Em/G
con unos liges de la primera y segunda posición en una octava mas aguda)


E|-----------------------------------------------------------------|
B|--------------------------------15/17b^-15-12--------------------|
G|----16-14---14-14-16/17-16-14-16------------14-12----------------|
D|-14-------16-------------------------------------14-12-----------|
A|-----------------------------------------------------14-12-------|
E|---------------------------------------------------------15-12/0-|

(solo trompetas en esta parte)
Cuando sueño con vos
Solamente con vos
Solo Solo

A|-----------|
B|-----------|
G|--7--9-----|
D|--7--9-----|
A|--5--7-----|
E|-----------|
Envía el tono de "Muero de frío" a tu celular/móvil
Este fichero es trabajo propio de su transcriptor y representa su interpretación personal de la canción. El material contenido en esta página es
para exclusivo uso privado, por lo que se prohibe su reproducción o retransmisión, así como su uso para fines comerciales.
© LaCuerda.net · Aviso Legal · Privacidad