Tablatura para Guitarra de Proyección: No Vuelvo a Amar
Conexión · Inscripción
Letras y Acordes
Pantalla Completa
Imprimir
Versión Texto
Añadir Favorito
Otras Versiones

Mostrar Diagramas
Desfile Automático
Manipular Acordes
Formato del Texto


Proyección
No Vuelvo a Amar(TAB)
calidad:
proy0032
AUTOR: Proyección  corregir
ALBUM: desconocido
Enviado por diego
hola soy diego tengo 16 años y dedico esta cancion a marisol
ramos montaño bueno hay lesva


estos son los punteos

 ---2-2--5-5-5----10-10-10-9-7-----7-7---10-10-10----12-10-7-5
--------------------------------------------------------------
--------------------------------------------------------------
--------------------------------------------------------------
--------------------------------------------------------------
--------------------------------------------------------------



---2-2--5-5-5----10-10-10-9-7-----7-7---10-10-10----12-10-14-10
---------------------------------------------------------------
---------------------------------------------------------------
---------------------------------------------------------------
---------------------------------------------------------------
---------------------------------------------------------------

 los arpegios  so tocan en la primera estrofa


----0-------
------0-0---
-------0----
----0------- esta cuerda yo no la uso pero x siacaso
------------
------------


me vi perdido y sin saber
que yo moria sin querer
SOL
ya no comfiaba en otro ser porque perdi ala que ame tu me enseñaste a compartir mi vida entera te ofreci tanta ternura te entrege solo tu olvido resibi porque el cariño suele cambiar si sabe amar tambien olvidar no existe el tiempo para borrar tu inmenso amor tu dulce mirar quiero olvidar no puedo mas no vuelvo a amar eso es todo preguntas y peticiones al face diego choque suxo grasias :)
Este fichero es trabajo propio de su transcriptor y representa su interpretación personal de la canción. El material contenido en esta página es
para exclusivo uso privado, por lo que se prohibe su reproducción o retransmisión, así como su uso para fines comerciales.

© LaCuerda.net · Aviso Legal · Privacidad