Tablatura para Bajo de los Prisioneros: Sexo
Conexión · Inscripción
Letras y Acordes
Pantalla Completa
Imprimir
Versión Texto
Añadir Favorito
Otras Versiones

Mostrar Diagramas
Desfile Automático
Formato del Texto

los Prisioneros
Sexo(BAJ)
calidad:
pris0352
AUTOR: Jorge González, Jorge Gonzalez
ALBUM: La Voz De Los '80
Enviado por Sebastián
Este es uno de mis temas favoritos, el canto se escucha
medio raro, pero les aseguro que está bien.

INTRO  
G----------------------------------
D----------------------------------
A----------------------------------
E-555-0-111-0-555-0-111-00--7------

G----------------------------------
D----------------------------------
A-----------4-4-4--5-5-5-7-7-5-4---
E-5-0-5-05---4-4----5-5---7-----7--

G----------------------------------
D----------------------------------
A-----------4-4-4--5-5-5-7-7-7-7---
E-5-0-5-05---4-4----5-5---7-7-7----

CANTO
El mejor gancho comercial
G----------------------------------
D----------------------------------
A----------------------------------
E-035--035--035--0353--------------

apela tu liberalidad
G----------------------------------
D----------------------------------
A----------------------------------
E-035--035--035--0353--------------

toca tu instinto animal
G----------------------------------
D----------------------------------
A----------------------------------
E-035--035--035--0353--------------

rozando la brutalidad
G----------------------------------
D----------------------------------
A----------------------7-7-7-7-----
E-035--035--035--0353---7-7-7------

Te lo encuentras en la pared...
Idem.

CORO
Sexo compro...
G----------------------------------
D----------------------------------
A-----------4-4-4--5-5-5-7-7-5-4---
E-5-0-5-05---4-4----5-5---7-----7--

G----------------------------------
D----------------------------------
A-----------4-4-4--5-5-5-7-7-7-7---
E-5-0-5-05---4-4----5-5---7-7-7----

CANTO

INTERMEDIO
G----------------------------------
D----------------------------------
A-------7----------3---------------
E-5-5-5---5--1-1-1---1-------------
varias veces(tambien cuando canta:
'las rotativas de imprenta...)
después de eso se toca:
G----------------------------------
D----------------------------------
A-1-1-1-5-5-5-6-6-6-8-8-6-5--------
E--1-1---5-5---6-6---8-----8-------

G----------------------------------
D----------------------------------
A-1-1-1-5-5-5-6-6-6-8-8-8----------
E--1-1---5-5---6-6---8-8-----------

El mejor gancho comercial
G----------------------------------
D----------------------------------
A-1-1-1-5-5-5-6-6-6-8-8-6-5--------
E--1-1---5-5---6-6---8-----8-------
apela tu imbecibilidad...
Idem.

Gamulán que se duerme...
G----------------------------------
D-------0-0-0-1-1-1-3--------------
A-1-1-1----------------------------
E----------------------------------

FINAL
G----------------------------------
D----------------------------------
A-2-2-2-6-6-6-7-7-7-9-9-7-6-9------
E--2-2---6-6---7-7---9-------------
se toca varias veces, hasta que termina la canción.

Cualquier duda o sugerencia escríbanme.
Envía el tono de "Sexo" a tu celular/móvil
Este fichero es trabajo propio de su transcriptor y representa su interpretación personal de la canción. El material contenido en esta página es
para exclusivo uso privado, por lo que se prohibe su reproducción o retransmisión, así como su uso para fines comerciales.
© LaCuerda.net · Aviso Legal · Privacidad