Tablatura para Guitarra de Prince Royce: Darte un beso
Conexión · Inscripción
Letras y Acordes
Pantalla Completa
Imprimir
Versión Texto
Añadir Favorito
Otras Versiones

Mostrar Diagramas
Desfile Automático
Manipular Acordes
Formato del Texto

Prince Royce
Darte un beso(TAB)
calidad:
pryc0173
AUTOR: Prince Royce
ALBUM: desconocido
Enviado por Julián
Hola! esta es la primera canción que saco y aquí la subo.
Correcciones o sugerencias a mi correo the_king_underground@hotmail.com

Darte un beso - Prince Royce
(Capo IV traste)
(Todas las notas son con referencia al capo)

Intro:
1|---3----3---3-----------------|
2|---4/5--5-------4p3----3------|
3|-------------------5-----5----|
4|------------------------------|
                         F                 G
1|------------------------|------------------|
2|-----0h1p0--------------|--1p0-----1-------|
3|------------2-0-0h2-----|-------2-----2s4--|
4|-(2)----------------(3)-|------------------|

                        Am
1|------------------------|------5-----------|
2|-----0h1p0--------------|--4s5---4p3---3---|
3|------------2-0--0h2----|------------5---5-|
4|-(3)----------------(2)-|------------------|

                       F           G
1|----------------------|-----5--3--|
2|----0h1p0-------------|-----------|
3|----------2-0-0h2-----|-4s5-------|
4|-(2)--------------(3)-|-----------|

                     Am
1|----------------------|---------------|
2|----0h1p0-------------|--1s3-3-3s1~---|
3|----------2-0-0h2-----|--2s4-4-4s2~---|
4|-(3)--------------(2)-|---------------|


C              G                 Am  F
 Amarte como te amo es complicado
C                G                 Am
 pensar como te pienso es un pecado

2|--0h1-0------|
3|--------1h3~-|

[[Ritmo de bachata]]
C               G                  Am  F
 mirar como te miro está prohibido
C                G                Am  F
 tocarte como quiero es un delito.

G                G G                   G G
Ya no sé que hacer, para que estés bien
Am                          D
si apagar el sol para encender tu amanecer
G
falhar en portugués, aprender a hablar francés
  Am Am                        Am Am
o bajar la luna hasta tus pies.

[[CORO]]
                  F          G
Yo solo quiero darte un beso
                 Am
y regalarte mis mañanas
                  F           G
cantar para calmar tus miedos
                Am
quiero que no te falte nada
                  F          G
Yo solo quiero darte un beso
                     Am
llenarte con mi amor el alma
                F          G
llevarte a conocer el cielo
                Am
quiero que no te falte nada.

                       F                 G
1|------------------------|------------|
2|-----0h1p0--------------|--4s5-3~----|
3|------------2-0-0h2-----|------------|
4|-(2)----------------(3)-|------------|

                        Am
1|------------------------|-----------------|
2|-----0h1p0--------------|--2s3~-1~-1s3s1--|
3|------------2-0--0h2----|----------2s4s2--|
4|-(3)----------------(2)-|-----------------|

C                    G              Am  F
 Si el mundo fuera mío, te lo daría
C               G               Am  F
 hasta mi religión la cambiaría
C                   G                Am  F
 porque hay tantas cosas que yo haría
C              G                    Am  F
 pero tú no me das, ni das noticias

G                G G                   G G
Ya no sé que hacer, para que estés bien
Am                          D
si apagar el sol para encender tu amanecer
G
falhar en portugués, aprender a hablar francés
  Am Am                        Am
o bajar la luna hasta tus pies.

                F           G
Yo solo quiero darte un beso
            E          Am
y regalarte mis mañanas
                F          G
cantar para calmar tus miedos
                Am
quiero que no te falte nada

- Solo:
1|-------------------------------|
2|------0-0-----0h1-0h1p0--------|
3|--0h2-----0--------------2--0--|
4|------------2------------------|

1|-------------------------------|
2|-------0-0-----0h1-0h1p0-------|
3|-0-0h2-----0--------------2-0--|
4|-------------2-----------------|

1|---------------------------|
2|-3-3-3-5-6-3-3--5~-0-------|
3|---------------------2-0---|

1|--12p11-12-----11h12-11-12--14--19~-|
2|-----------12-----------------------|
3|------------------------------------|

1|-0--x-0--x-0--x-0--x-x-x-0--0-0-|
2|-1--x-1--x-1--x-1--x-x-x-1--1-1-|
3|-2--x-2--x-2--x-2--x-x-x-2--2-2-|
4|-2--x-2--x-2--x-2--x-x-x-2--2-2-|

                F            G
Yo solo quiero darte un beso
                  E         Am
llenarte con mi amor el alma
             F          G
solo quiero darte un beso
                Am
pero que no te falte nada
                F            G
Yo solo quiero darte un beso
                E         Am
llevarte a conocer el cielo
             F          G
solo quiero darte un beso
                Am
pero que no te falte nada

1|-------------|
2|--1p0--------|
3|-------2--0--|
4|-------------|

F  G
     (Solo quiero...)
Am                 F
  (Yo solo quiero darte un...)
G                 Am
  quiero que no te falte nada...
Envía el tono de "Darte un beso" a tu celular/móvil
Este fichero es trabajo propio de su transcriptor y representa su interpretación personal de la canción. El material contenido en esta página es
para exclusivo uso privado, por lo que se prohibe su reproducción o retransmisión, así como su uso para fines comerciales.
© LaCuerda.net · Aviso Legal · Privacidad