Letra y Acordes de Platero y Tú: Maldita mujer
Conexión · Inscripción
Letras y Acordes
Pantalla Completa
Imprimir
Versión Texto
Añadir Favorito
Otras Versiones

Mostrar Diagramas
Desfile Automático
Manipular Acordes
Formato del Texto


Platero y Tú
Maldita mujer
calidad:
pytu0291
AUTOR: Yo una notxe de pedo con los platero
ALBUM: Hay poco rock & roll
Enviado por LuisAlvarez
MALDITA MUJER
(Platero y Tú)

   MI7    MIm7    RE9

E  0 7      7      X
B  0 9      8      5
G  1 7      7      5
D  0 9      9      4
A  2 7      7      5
E  0 7      7      X

Intro
REm LAm MI7
LAm RE9 LAm RE9 LAm MI7 SOL REm LAm

Riff 1
   LAm           RE9             LAm            MI7
E[--------------------------------------------------0-
B[-------5---------------5------------ 5----------3---
G[-----5---5-----------5---5-------- 5---5------------
D[---7-------7------4---------4----7-------7----2-----
A[---------------5------------------------------------
E[-5-----------------------------5--------------------

Estrofa 1
     LAm         RE9
  Yo canto blues
                               LAm
  cuando pienso que algo he perdido
     RE9
  Yo canto blues
                               LAm
  porque sé que ya no estás conmigo
    MI7
  Y canto blues
  SOL       REm       LAm
  porque el blues soy yo

Riff 1

Estrofa 2
  Mí corazón
  es un charco en mitad del camino
  Tu corazón
  se ha alegrado brindando con vino
  Y aunque estás con él
  sé que estás conmigo

Riff 1 (Siempre antes del estribillo se sustituyen
las notas de Mi7 arpegiadas por el acorde completo
tocado 4 veces)

Estribillo
DO          SOL
  Maldita mujer
        FA       SOL DO
  me mordiste el corazón
        MIm7    LAm  SOL
  y aún llevo veneno
          FA   MI7     LAm
  y ahora vivo sin control
DO             SOL
  Benditas las drogas
          FA      SOL DO
  que me ayudan a olvidar

Riff 1
   DO      MIm7    LAm   SOL     FA      SOL       DO
E[----------------------------------------------------
B[-----1-------1-----------------------------------1--
G[---0-------0---------2-----0---------------0-----0--
D[-------------------2-----0---------3-----0-------2--
A[-3-------2-------0---------------3---------------3--
E[-----------------------3-------1-------3------------

Solo de guitarra (sobre la misma
progresión de acordes de la estrofa)
LAm RE9 LAm RE9 LAm MI7 SOL REm LAm

Riff 1

Estrofa 3
  Una canción
  yo podría cantarte al oído
  Sólo una canción
  una y tú volverías conmigo
  pero es tarde ya
  y tú me has perdido

Riff 1

Estribillo
  Maldita mujer
  me mordiste el corazón
  y aún llevo veneno
  y ahora vivo sin control
  Benditas las drogas
  que me ayudan a olvidar

Riff 2 como final...

Transcripción de Luis Alvarez
lualvar@yahoo.es
Este fichero es trabajo propio de su transcriptor y representa su interpretación personal de la canción. El material contenido en esta página es
para exclusivo uso privado, por lo que se prohibe su reproducción o retransmisión, así como su uso para fines comerciales.
© LaCuerda.net · Aviso Legal · Privacidad