Tablatura para Guitarra de los Piojos: Tan solo
Conexión · Inscripción
Letras y Acordes
Pantalla Completa
Imprimir
Versión Texto
Añadir Favorito
Otras Versiones

Mostrar Diagramas
Desfile Automático
Manipular Acordes
Formato del Texto

los Piojos
Tan solo(TAB)
calidad:
pioj0357
AUTOR: Ciro
ALBUM: 1989-2002
Enviado por Sergio
Hola soy sergio y éste es mi primer aporte, espero
que les guste y le suene bien.

Riff 1:
1|-------------------|---------------|----------------|
2|-------------------|---------------|----------------|
3|-------------------|----5----------|----------------|
4|--4/5x--5---5-4-3x-|--3---3--------|----2-2--3-4-5x-|
5|---------5-5-------|--------5-4-3x-|--3-------------|
6|-------------------|---------------|----------------|

Riff 2:
1|-----------------|
2|-----------------|
3|-----------------|
4|--5-----3/4-6-5x-|
5|----5-5----------|
6|-----------------|

Riff 3:
1|---------------|---------------|----------------|
2|---------------|---------------|----------------|
3|---------------|----5----------|----------------|
4|--5-----5-4-3x-|--3---3--------|----2-2--3-4-5x-|
5|----5-5--------|--------5-4-3x-|--3-------------|
6|---------------|---------------|----------------|



Para continuar la canción se sigue tocando el Riff 2 y el Riff 3,
eso seria básicamente toda la canción.
Los números que están seguidos por una "x" deben tocarse y después
hacer que deje de sonar con un golpecito.
saludos a todos..
Envía el tono de "Tan solo" a tu celular/móvil
Este fichero es trabajo propio de su transcriptor y representa su interpretación personal de la canción. El material contenido en esta página es
para exclusivo uso privado, por lo que se prohibe su reproducción o retransmisión, así como su uso para fines comerciales.
© LaCuerda.net · Aviso Legal · Privacidad