Letra y Acordes de Piero: Mi Viejo
Conexión · Inscripción
Letras y Acordes
Pantalla Completa
Imprimir
Versión Texto
Añadir Favorito
Otras Versiones

Mostrar Diagramas
Desfile Automático
Manipular Acordes
Formato del Texto

Piero
Mi Viejo
calidad:
pier0092
AUTOR: Piero  corregir
ALBUM: desconocido
Enviado por Fernando
Intro:

e|----------|-----------|------------|-------------|
B|-1--1-0-0-|-----------|----0-0-0-1-|----0-0-0-1--|
G|--2----2--|-2-0-2-0-0-|-1-2---2---2|-1-2-----2-2-|
D|---2-----3|----3---3-2|------------|-------------|
A|----------|-----------|------------|-------------|
E|----------|-----------|------------|-------------|

e|----------|-----------|---------|----0--|--0-1-1-|-0--3-0-|
B|-1--1-0-0-|-----------|-0-1-3-3-|-1-0-1-|-3------|--3-----|
G|--2----2--|-2-0-2-0-0-|---------|-------|--------|--------|
D|---2-----3|----3---3-2|---------|-------|--------|--------|
A|----------|-----------|---------|-------|--------|--------|
E|----------|-----------|---------|-------|--------|--------|


     Am                   E7
     ES UN BUEN TIPO MI VIEJO
         F     G          C
     QUE ANDA SOLO Y ESPERANDO
    E7                  Am
     TIENE LA TRISTEZA LARGA
    E7                  Am
     DE TANTO VENR ANDANDO
 G-Am                  E7
     YO LO MIRO DESDE LEJOS
      F    G            C
     PERO SOMOS TAN DISTINTOS
    E7                     Am
     ES QUE CRECIO CON EL SIGLO
     G                   C   E7
     CON TRANVIA Y VINO TINTO.

                        Am
     VIEJO MI QUERIDO VIEJO
       G               C
     AHORA YA CAMINAS LENTO
      E7                  Am
     COMO PERDONANDO EL VIENTO
      E7                  Am
     YO SOY TO SANGRE MI VIEJO
      E7                  Am
     SOY TU SILENCIO Y TU TIEMPO.

 G-Am                    E7
     EL TIENE LOS OJOS BUENOS
       F      G      C
     Y UNA FIGURA PESADA
    E7                     Am
     LA EDAD SE LE VINO ENCIMA
    E7                   Am
     SIN CARNAVAL NI COMPARSA.

 G-Am                    E7
     YO TENGO LOS ANOS NUEVOS
     F       G            C
     EL HOMBRE LOS ANOS VIEJOS
     E7                 Am
     EL DOLOR LO LLEVA DENTRO
     G                        C    E7
     Y TIENE HISTORIAS SIN TIEMPO

                        Am
     VIEJO MI QUERIDO VIEJO..ETC.
Envía el tono de "Mi Viejo" a tu celular/móvil
Este fichero es trabajo propio de su transcriptor y representa su interpretación personal de la canción. El material contenido en esta página es
para exclusivo uso privado, por lo que se prohibe su reproducción o retransmisión, así como su uso para fines comerciales.
© LaCuerda.net · Aviso Legal · Privacidad