Tablatura para Guitarra de Paulina Rubio: El Ultimo Adios
Conexión · Inscripción
Letras y Acordes
Pantalla Completa
Imprimir
Versión Texto
Añadir Favorito
Otras Versiones

Mostrar Diagramas
Desfile Automático
Manipular Acordes
Formato del Texto

Paulina Rubio
El Ultimo Adios(TAB)
calidad:
prub0013
AUTOR: Estéfano
ALBUM: Paulina
Enviado por sNaKePiTs
Transcrita por: Nestor Sadao Arechiga Cervantes (sNaKePiTs@guitar.com)
           G                    D                    C                   
      3 5 5 4 3 3          x x 0 2 3 2          x 3 2 0 1 0          x x x 4 3 1

Gtr I  (E A D G B E) - 'Trompetas'
Gtr II (E A D G B E) - 'Guitarra'

  Q=83
                    G
 4/4
  Gtr I
  H    E S S E  E    H                E   S  S  +E     E
|--------7---7--8-|-10---------------10-----10-(10)---12---|
|--------8---8-10-|-12---------------12-----12-(12)---12---|
|-----------------|----------------------------------------|
|-----------------|----------------------------------------|
|-----------------|----------------------------------------|
|-----------------|----------------------------------------|
|
| Gtr II
| W                  S S S S S S S S  S S S  S   S  S  S S
|-----------------|--3---3---3---3----3---3------3-----3---|
|-----------------|--3---3---3---3----3---3------3-----3---|
|-----------------|--4---4---4---4----4---4------4-----4---|
|-----------------|----------------------------------------|
|-----------------|----------------------------------------|
|-----------------|----------------------------------------|


   Q        S  S S  S  S  S  E    +Q
|-10-------10--8-7--8-10-12-10---(10)-------|
|-12-------12-10-8-10-12-13-12---(12)-------|
|-------------------------------------------|
|-------------------------------------------|
|-------------------------------------------|
|-------------------------------------------|
|
|  S S S S  S  S S  S  S  S  S S   S  S S S
|--3---3----3----3-----3-----3-----3----3---|
|--3---3----3----3-----3-----3-----3----3---|
|--4---4----4----4-----4-----4-----4----4---|
|-------------------------------------------|
|-------------------------------------------|
|-------------------------------------------|


   +S  S  S S  S S  E    Q        Q
|-(10)---10---10---10---15-------14-------|
|--------12---12---12---17-------15-------|
|-----------------------------------------|
|-----------------------------------------|
|-----------------------------------------|
|-----------------------------------------|
|
|   S  S  S S  S S  S S  S S S S  S S S S
|---3-----3----3----3----3---3----3---3---|
|---3-----3----3----3----3---3----3---3---|
|---4-----4----4----4----4---4----4---4---|
|-----------------------------------------|
|-----------------------------------------|
|-----------------------------------------|


  D
   S  S  E    +Q         +S  S E   E    E
|-12-14-------------------------------------|
|-13-15-13---(13)-------(13)-----------15---|
|-------14---(14)-------(14)-----------16---|
|-------------------------------------------|
|-------------------------------------------|
|-------------------------------------------|
|
|  S  S  S S   S  S S S   S  S S S S S  S S
|--2-----2-----2----2-----2----2---2----2---|
|--3-----3-----3----3-----3----3---3----3---|
|--2-----2-----2----2-----2----2---2----2---|
|-------------------------------------------|
|-------------------------------------------|
|-------------------------------------------|


   E   S  S  +S  S  S S  E.      S  +E     S S
|-17-----17-(17)---17---17------15-(15)---14---|
|-19-----19-(19)---19---19------17-(17)---15---|
|----------------------------------------------|
|----------------------------------------------|
|----------------------------------------------|
|----------------------------------------------|
|
|  S S S  S   S  S  S S  S  S S  S   S  S  S S
|--2---2------2-----2----2----2------2-----2---|
|--3---3------3-----3----3----3------3-----3---|
|--2---2------2-----2----2----2------2-----2---|
|----------------------------------------------|
|----------------------------------------------|
|----------------------------------------------|


   S  S  E    +Q         +E    E   E    S S
|-14-15-14---(14)-------(14)-----------14---|
|-15-17-15---(15)-------(15)-----------15---|
|-------------------------------------------|
|-------------------------------------------|
|-------------------------------------------|
|-------------------------------------------|
|
|  S  S  S S   S  S S S   S  S S S S S  S S
|--2-----2-----2----2-----2----2---2----2---|
|--3-----3-----3----3-----3----3---3----3---|
|--2-----2-----2----2-----2----2---2----2---|
|-------------------------------------------|
|-------------------------------------------|
|-------------------------------------------|


   E    S S  E    S S  Q        +S  S  S S
|-14---12---12---10---10-------(10)----8---|
|-15---13---13---12---12-------(12)---10---|
|------------------------------------------|
|------------------------------------------|
|------------------------------------------|
|------------------------------------------|
|
|  S S  S S  S S  S S  S S S S   S  S  S S
|--2----2----2----2----2---2-----2-----2---|
|--3----3----3----3----3---3-----3-----3---|
|--2----2----2----2----2---2-----2-----2---|
|------------------------------------------|
|------------------------------------------|
|------------------------------------------|


  G
   S  S E   +Q        +E    E   E   S  S   H               H
|--8-10-7---(7)-------(7)-----------7--8-|-7-------------------------------|
|-10-12-8---(8)-------(8)-----------8-10-|-8-------------------------------|
|----------------------------------------|---------------------------------|
|----------------------------------------|---------------------------------|
|----------------------------------------|---------------------------------|
|----------------------------------------|---------------------------------|
|
|  S  S S S  S  S S S  S  S S S S S S  S   S S S S S S S S S S S S S S S S
|--3----3----3----3----3----3---3---3----|-3---3---3---3---3---3---3---3---|
|--3----3----3----3----3----3---3---3----|-3---3---3---3---3---3---3---3---|
|--4----4----4----4----4----4---4---4----|-4---4---4---4---4---4---4---4---|
|----------------------------------------|---------------------------------|
|----------------------------------------|---------------------------------|
|----------------------------------------|---------------------------------|


 Verse
  Gtr II
  S S S S S S S S S S S S S S S S   S S S S S S S S S S S S S S S S
|-3---3---3---3---3---3---3---3---|-3---3---3---3---3---3---3---3---|
|-3---3---3---3---3---3---3---3---|-3---3---3---3---3---3---3---3---|
|-4---4---4---4---4---4---4---4---|-4---4---4---4---4---4---4---4---|
|---------------------------------|---------------------------------|
|---------------------------------|---------------------------------|
|---------------------------------|---------------------------------|


                                    D
  Gtr I
  W                                 E   E   E   E   +Q        Q
|---------------------------------|-----------------------------------|
|---------------------------------|-----------------------------------|
|---------------------------------|-----2---4---5---(5)---------------|
|---------------------------------|-----4---5---7---(7)---------------|
|---------------------------------|-----------------------------------|
|---------------------------------|-----------------------------------|
|
| Gtr II
| S S S S S S S S S S S S S S S S   S S S S S S S S  S  S S S S S S S
|-3---3---3---3---3---3---3---3---|-2---2---2---2----2----2---2---2---|
|-3---3---3---3---3---3---3---3---|-3---3---3---3----3----3---3---3---|
|-4---4---4---4---4---4---4---4---|-2---2---2---2----2----2---2---2---|
|---------------------------------|-----------------------------------|
|---------------------------------|-----------------------------------|
|---------------------------------|-----------------------------------|


  C               D                 G
  W                                 E   E   E   E   +Q        Q
|---------------------------------|-----------------------------------|
|---------------------------------|-----------------------------------|
|---------------------------------|-----4---5---7---(7)---------------|
|---------------------------------|-----5---7---9---(9)---------------|
|---------------------------------|-----------------------------------|
|---------------------------------|-----------------------------------|
|
| S S S S S S S S S S S S S S S S   S S S S S S S S  S  S S S S S S S
|-0---0---0---0---2---2---2---2---|-3---3---3---3----3----3---3---3---|
|-1---1---1---1---3---3---3---3---|-3---3---3---3----3----3---3---3---|
|-0---0---0---0---2---2---2---2---|-4---4---4---4----4----4---4---4---|
|---------------------------------|-----------------------------------|
|---------------------------------|-----------------------------------|
|---------------------------------|-----------------------------------|


  D                                 G
  W                                 E    E    E    E    E    E    E    E
|---------------------------------|----------10---15---19---17---15---14---|
|---------------------------------|-----12---12---15---20---19---17---16---|
|---------------------------------|-----12---------------------------------|
|---------------------------------|----------------------------------------|
|---------------------------------|----------------------------------------|
|---------------------------------|----------------------------------------|
|
| S S S S S S S S S S S S S S S S   S S  S S  S S  S S  S S  S S  S S  S S
|-2---2---2---2---2---2---2---2---|-3----3----3----3----3----3----3----2---|
|-3---3---3---3---3---3---3---3---|-3----3----3----3----3----3----3----3---|
|-2---2---2---2---2---2---2---2---|-4----4----4----4----4----4----4----4---|
|---------------------------------|----------------------------------------|
|---------------------------------|----------------------------------------|
|---------------------------------|----------------------------------------|


  
   E   S  S  S  S S  S  H
|-13-----12-10--8-7--8-10---------------|
|-15-----13-12-10-8-10-12---------------|
|---------------------------------------|
|---------------------------------------|
|---------------------------------------|
|---------------------------------------|
|
|  S S S  S  S  S S  S  S S S S S S S S
|--1---1-----1----1-----1---1---1---1---|
|--3---3-----3----3-----3---3---3---3---|
|--4---4-----4----4-----4---4---4---4---|
|---------------------------------------|
|---------------------------------------|
|---------------------------------------|


  C
  Q        S  S  S  S  Q.           E
|---------12-10--8-10-12----------------|
|---------13-12-10-12-13----------------|
|---------------------------------------|
|---------------------------------------|
|---------------------------------------|
|---------------------------------------|
|
| S S S S  S  S  S  S  S  S S S S S S S
|-0---0----0-----0-----0----0---0---0---|
|-1---1----1-----1-----1----1---1---1---|
|-0---0----0-----0-----0----0---0---0---|
|---------------------------------------|
|---------------------------------------|
|---------------------------------------|


  Q        S  S  S  S  Q.           E     W
|---------12-10--8-10-12----------------|---------------------------------|
|---------13-12-10-12-13----------------|---------------------------------|
|---------------------------------------|---------------------------------|
|---------------------------------------|---------------------------------|
|---------------------------------------|---------------------------------|
|---------------------------------------|---------------------------------|
|
| S S S S  S  S  S  S  S  S S S S S S S   S S S S S S S S S S S S S S S S
|-0---0----0-----0-----0----0---0---0---|-0---0---0---0---0---0---0---0---|
|-1---1----1-----1-----1----1---1---1---|-1---1---1---1---1---1---1---1---|
|-0---0----0-----0-----0----0---0---0---|-0---0---0---0---0---0---0---0---|
|---------------------------------------|---------------------------------|
|---------------------------------------|---------------------------------|
|---------------------------------------|---------------------------------|


  G
  E    S  S E    E    Q.           E     E   S  S  Q         E    E   Q
|-----10--8-7----8---10----------------|-----7--8-10-------(10)---------------|
|-----12-10-8---10---12----------------|-----8-10-12--------12----------------|
|--------------------------------------|--------------------------------------|
|--------------------------------------|--------------------------------------|
|--------------------------------------|--------------------------------------|
|--------------------------------------|--------------------------------------|
|
| S S  S  S S S  S S  S  S S S S S S S   S S S  S  S S S S   S  S S S S S S S
|-3----3----3----3----3----3---3---3---|-3---3-----3---3-----3----3---3---3---|
|-3----3----3----3----3----3---3---3---|-3---3-----3---3-----3----3---3---3---|
|-4----4----4----4----4----4---4---4---|-4---4-----4---4-----4----4---4---4---|
|--------------------------------------|--------------------------------------|
|--------------------------------------|--------------------------------------|
|--------------------------------------|--------------------------------------|


  D
  E    E    E    E    Q        +S  S E     E    E    E    E    Q       Q
|-----10----8----------------------------|----------10----9----8---------------|
|-----12---10---10-----------------------|-----10---12---11---10---------------|
|---------------11---11-------(11)-------|-----12------------------------------|
|--------------------12-------(12)-------|-------------------------------------|
|----------------------------------------|-------------------------------------|
|----------------------------------------|-------------------------------------|
|
| S S  S S  S S  S S  S S S S   S  S S S   S S  S S  S S  S S  S S S S S S S S
|-2----2----2----2----2---2-----2----2---|-2----2----2----2----2---2---2---2---|
|-3----3----3----3----3---3-----3----3---|-3----3----3----3----3---3---3---3---|
|-2----2----2----2----2---2-----2----2---|-2----2----2----2----2---2---2---2---|
|----------------------------------------|-------------------------------------|
|----------------------------------------|-------------------------------------|
|----------------------------------------|-------------------------------------|


  G
  Q        S  S S  S  Q        +S  S E
|---------10--8-7--8-10-------(10)-------|
|---------12-10-8-10-12-------(12)-------|
|----------------------------------------|
|----------------------------------------|
|----------------------------------------|
|----------------------------------------|
|
| S S S S  S  S S  S  S S S S   S  S S S
|-3---3----3----3-----3---3-----3----3---|
|-3---3----3----3-----3---3-----3----3---|
|-4---4----4----4-----4---4-----4----4---|
|----------------------------------------|
|----------------------------------------|
|----------------------------------------|


  D
  E    S  S  S  S  S  S  S S  S  S  S  S  S S
|------8-10-12-10--8-10-12------10-12-10--8-7-|
|-----10-12-13-12-10-12-13---13-12-13-12-10-8-|
|----------------------------14---------------|
|---------------------------------------------|
|---------------------------------------------|
|---------------------------------------------|
|
| S S  S  S  S  S  S  S  S S  S  S  S  S  S S
|-2----2-----2-----2-----2----2-----2-----2---|
|-3----3-----3-----3-----3----3-----3-----3---|
|-2----2-----2-----2-----2----2-----2-----2---|
|---------------------------------------------|
|---------------------------------------------|
|---------------------------------------------|


                                      G
  H               +H                  E   S S S S  E    +Q.           E
|-5---------------(5)---------------|-----7-7-7-7-10---(10)---------------|
|-7---------------(7)---------------|-----8-8-8-8-12---(12)---------------|
|-----------------------------------|-------------------------------------|
|-----------------------------------|-------------------------------------|
|-----------------------------------|-------------------------------------|
|-----------------------------------|-------------------------------------|
|
| S S S S S S S S  S  S S S S S S S   S S S S S S  S S   S  S S S S S S S
|-2---2---2---2----2----2---2---2---|-3---3---3----3-----3----3---3---3---|
|-3---3---3---3----3----3---3---3---|-3---3---3----3-----3----3---3---0---|
|-2---2---2---2----2----2---2---2---|-4---4---4----4-----4----4---4-------|
|-----------------------------------|-------------------------------------|
|-----------------------------------|-------------------------------------|
|-----------------------------------|-------------------------------------|


  D
  E   S S S S  E    +Q.           E     E   S S S S  E    +Q.           E
|-----5-5-5-5--8----(8)---------------|-----5-5-5-5--8----(8)---------------|
|-----7-7-7-7-10---(10)---------------|-----7-7-7-7-10---(10)---------------|
|-------------------------------------|-------------------------------------|
|-------------------------------------|-------------------------------------|
|-------------------------------------|-------------------------------------|
|-------------------------------------|-------------------------------------|
|
| S S S S S S  S S   S  S S S S S S S   S S S S S S  S S   S  S S S S S S S
|-2---2---2----2-----2----2---2---2---|-2---2---2----2-----2----2---2---2---|
|-3---3---3----3-----3----3---3---3---|-3---3---3----3-----3----3---3---3---|
|-2---2---2----2-----2----2---2---2---|-2---2---2----2-----2----2---2---2---|
|-------------------------------------|-------------------------------------|
|-------------------------------------|-------------------------------------|
|-------------------------------------|-------------------------------------|


  G
  E   S S S S  E    +Q         +S  S E     E   S S S S  E    +Q.           E
|-----7-7-7-7-10---(10)-------(10)-------|-----7-7-7-7-10---(10)---------------|
|-----8-8-8-8-12---(12)-------(12)-------|-----8-8-8-8-12---(12)---------------|
|----------------------------------------|-------------------------------------|
|----------------------------------------|-------------------------------------|
|----------------------------------------|-------------------------------------|
|----------------------------------------|-------------------------------------|
|
| S S S S S S  S S   S  S S S   S  S S S   S S S S S S  S S   S  S S S S S S S
|-3---3---3----3-----3----3-----3----3---|-3---3---3----3-----3----3---3---3---|
|-3---3---3----3-----3----3-----3----3---|-3---3---3----3-----3----3---3---3---|
|-4---4---4----4-----4----4-----4----4---|-4---4---4----4-----4----4---4---4---|
|----------------------------------------|-------------------------------------|
|----------------------------------------|-------------------------------------|
|----------------------------------------|-------------------------------------|


  D
  E   S S S S  E    +Q.           E     Q        S S  E    S S  E    S S  E
|-----5-5-5-5--8----(8)---------------|---------12---12---10---10----8----8---|
|-----7-7-7-7-10---(10)---------------|---------13---13---12---12---10---10---|
|-------------------------------------|---------------------------------------|
|-------------------------------------|---------------------------------------|
|-------------------------------------|---------------------------------------|
|-------------------------------------|---------------------------------------|
|
| S S S S S S  S S   S  S S S S S S S   S S S S  S S  S S  S S  S S  S S  S S
|-2---2---2----2-----2----2---2---2---|-2---2----2----2----2----2----2----2---|
|-3---3---3----3-----3----3---3---3---|-3---3----3----3----3----3----3----3---|
|-2---2---2----2-----2----2---2---2---|-2---2----2----2----2----2----2----2---|
|-------------------------------------|---------------------------------------|
|-------------------------------------|---------------------------------------|
|-------------------------------------|---------------------------------------|


  G                                 D
  W                                 W
|-7-------------------------------|---------------------------------|
|-8-------------------------------|---------------------------------|
|---------------------------------|---------------------------------|
|---------------------------------|---------------------------------|
|---------------------------------|---------------------------------|
|---------------------------------|---------------------------------|
|
| S S S S S S S S S S S S S S S S   S S S S S S S S S S S S S S S S
|-3---3---3---3---3---3---3---3---|-2---2---2---2---2---2---2---2---|
|-3---3---3---3---3---3---3---3---|-3---3---3---3---3---3---3---3---|
|-4---4---4---4---4---4---4---4---|-2---2---2---2---2---2---2---2---|
|---------------------------------|---------------------------------|
|---------------------------------|---------------------------------|
|---------------------------------|---------------------------------|


  G                                     D
  E   S S S S  E    +Q.           E     E   S S S S  E    +Q.           E
|-----7-7-7-7-10---(10)---------------|-----5-5-5-5--8----(8)---------------|
|-----8-8-8-8-12---(12)---------------|-----7-7-7-7-10---(10)---------------|
|-------------------------------------|-------------------------------------|
|-------------------------------------|-------------------------------------|
|-------------------------------------|-------------------------------------|
|-------------------------------------|-------------------------------------|
|
| S S S S S S  S S   S  S S S S S S S   S S S S S S  S S   S  S S S S S S S
|-3---3---3----3-----3----3---3---3---|-2---2---2----2-----2----2---2---2---|
|-3---3---3----3-----3----3---3---0---|-3---3---3----3-----3----3---3---3---|
|-4---4---4----4-----4----4---4-------|-2---2---2----2-----2----2---2---2---|
|-------------------------------------|-------------------------------------|
|-------------------------------------|-------------------------------------|
|-------------------------------------|-------------------------------------|


                                        G
  E   S S S S  E    +Q.           E     E   S S S S  E    +Q         +S  S E
|-----5-5-5-5--8----(8)---------------|-----7-7-7-7-10---(10)-------(10)-------|
|-----7-7-7-7-10---(10)---------------|-----8-8-8-8-12---(12)-------(12)-------|
|-------------------------------------|----------------------------------------|
|-------------------------------------|----------------------------------------|
|-------------------------------------|----------------------------------------|
|-------------------------------------|----------------------------------------|
|
| S S S S S S  S S   S  S S S S S S S   S S S S S S  S S   S  S S S   S  S S S
|-2---2---2----2-----2----2---2---2---|-3---3---3----3-----3----3-----3----3---|
|-3---3---3----3-----3----3---3---3---|-3---3---3----3-----3----3-----3----3---|
|-2---2---2----2-----2----2---2---2---|-4---4---4----4-----4----4-----4----4---|
|-------------------------------------|----------------------------------------|
|-------------------------------------|----------------------------------------|
|-------------------------------------|----------------------------------------|


                                        D
  E   S S S S  E    +Q.           E     E   S S S S  E    +Q.           E
|-----7-7-7-7-10---(10)---------------|-----5-5-5-5--8----(8)---------------|
|-----8-8-8-8-12---(12)---------------|-----7-7-7-7-10---(10)---------------|
|-------------------------------------|-------------------------------------|
|-------------------------------------|-------------------------------------|
|-------------------------------------|-------------------------------------|
|-------------------------------------|-------------------------------------|
|
| S S S S S S  S S   S  S S S S S S S   S S S S S S  S S   S  S S S S S S S
|-3---3---3----3-----3----3---3---3---|-2---2---2----2-----2----2---2---2---|
|-3---3---3----3-----3----3---3---3---|-3---3---3----3-----3----3---3---3---|
|-4---4---4----4-----4----4---4---4---|-2---2---2----2-----2----2---2---2---|
|-------------------------------------|-------------------------------------|
|-------------------------------------|-------------------------------------|
|-------------------------------------|-------------------------------------|


                                          G
  Q        S S  E    S S  E    S S  E     W
|---------12---12---10---10----8----8---|-7-------------------------------|
|---------13---13---12---12---10---10---|-8-------------------------------|
|---------------------------------------|---------------------------------|
|---------------------------------------|---------------------------------|
|---------------------------------------|---------------------------------|
|---------------------------------------|---------------------------------|
|
| S S S S  S S  S S  S S  S S  S S  S S   S S S S S S S S S S S S S S S S
|-2---2----2----2----2----2----2----2---|-3---3---3---3---3---3---3---3---|
|-3---3----3----3----3----3----3----3---|-3---3---3---3---3---3---3---3---|
|-2---2----2----2----2----2----2----2---|-4---4---4---4---4---4---4---4---|
|---------------------------------------|---------------------------------|
|---------------------------------------|---------------------------------|
|---------------------------------------|---------------------------------|


  D                                 G
  H               E   S S S S S S   S S S S Q       E   S S  E   S S
|-------------------------0-2-3-5-|-7-7-7-5-7---------------10---8---|
|-----------------------3-1-3-5-7-|-8-8-8-7-8-----------3---11---5---|
|-----------------------4---------|---------------------4------------|
|---------------------------------|----------------------------------|
|---------------------------------|----------------------------------|
|---------------------------------|----------------------------------|
|
| S S S S S S S S S S S S S S S S   S S S S S S S S S S S S  S S S S
|-2---2---2---2---2---2---2---2---|-3---3---3---3---3---3----3---3---|
|-3---3---3---3---3---3---3---3---|-3---3---3---3---3---3----3---3---|
|-2---2---2---2---2---2---2---2---|-4---4---4---4---4---4----4---4---|
|---------------------------------|----------------------------------|
|---------------------------------|----------------------------------|
|---------------------------------|----------------------------------|


  S S S S Q       E   S S S S S S   E.     S S S S S S S S  S  S  S S S
|-7-7-7-5-7---------------0-2-3-5-|-7------7-7---5-7-7-7----8-10--8---7-|
|-8-8-8-7-8-------------3-1-3-5-7-|-8------8-8---7-8-8-8---10-12-10---8-|
|-----------------------4---------|-------------------------------------|
|---------------------------------|-------------------------------------|
|---------------------------------|-------------------------------------|
|---------------------------------|-------------------------------------|
|
| S S S S S S S S S S S S S S S S   S  S S S S S S S S S S  S  S  S S S
|-3---3---3---3---3---3---3---3---|-3----3---3---3---3---3-----3----3---|
|-3---3---3---3---3---3---3---3---|-3----3---3---3---3---3-----3----3---|
|-4---4---4---4---4---4---4---4---|-4----4---4---4---4---4-----4----4---|
|---------------------------------|-------------------------------------|
|---------------------------------|-------------------------------------|
|---------------------------------|-------------------------------------|


  D                                   C               D
  E.      S Q       H                 W
|-7-------8-7-----------------------|---------------------------------|
|-8------10-7-----------------------|---------------------------------|
|-----------------------------------|---------------------------------|
|-----------------------------------|---------------------------------|
|-----------------------------------|---------------------------------|
|-----------------------------------|---------------------------------|
|
| S  S S  S S S S S S S S S S S S S   S S S S S S S S S S S S S S S S
|-2----2----2---2---2---2---2---2---|-0---0---0---0---2---2---2---2---|
|-3----3----3---3---3---3---3---3---|-1---1---1---1---3---3---3---3---|
|-2----2----2---2---2---2---2---2---|-0---0---0---0---2---2---2---2---|
|-----------------------------------|---------------------------------|
|-----------------------------------|---------------------------------|
|-----------------------------------|---------------------------------|


  G                                   D
  E   E   S S E   S S S S S  S S  S   E   E   +S  S S S  S S  S  S  S E   S
|---------7---5---7-7---7-7-10----8-|-7---5---(5)---5-7--8----8--8--8-7---5-|
|---------8---7---8-8---8-8-12---10-|-8---7---(7)---7-8-10---10-10-10-8---7-|
|-----7-----------------------------|---------------------------------------|
|-----9-----------------------------|---------------------------------------|
|-----------------------------------|---------------------------------------|
|-----------------------------------|---------------------------------------|
|
| S S S S S S S S S S S S S  S S  S   S S S S  S  S S S  S S  S  S  S S S S
|-3---3---3---3---3---3---3----3----|-2---2----2----2----2----2-----2---2---|
|-3---3---3---3---3---3---3----3----|-3---3----3----3----3----3-----3---3---|
|-4---4---4---4---4---4---4----4----|-2---2----2----2----2----2-----2---2---|
|-----------------------------------|---------------------------------------|
|-----------------------------------|---------------------------------------|
|-----------------------------------|---------------------------------------|


  G                                 
  H               H                 E    E   S S S S Q       +S  S E
|-3-------------------------------|-----10---8-8-7-5-7-------(7)-------|
|-3-------------------------------|------8---6-6-5-5-6-------(6)-------|
|---------------------------------|------------------------------------|
|---------------------------------|------------------------------------|
|---------------------------------|------------------------------------|
|---------------------------------|------------------------------------|
|
| S S S S S S S S S S S S S S S S   S S  S S S S S S S S S S  S  S S S
|-3---3---3---3---3---3---3---3---|-1----1---1---1---1---1----1----1---|
|-3---3---3---3---3---3---3---3---|-3----3---3---3---3---3----3----3---|
|-4---4---4---4---4---4---4---4---|-4----4---4---4---4---4----4----4---|
|---------------------------------|------------------------------------|
|---------------------------------|------------------------------------|
|---------------------------------|------------------------------------|


  C
  Q        S  S  S  S  Q.           E
|---------12-10--8-10-12----------------|
|---------13-12-10-12-13----------------|
|---------------------------------------|
|---------------------------------------|
|---------------------------------------|
|---------------------------------------|
|
| S S S S  S  S  S  S  S  S S S S S S S
|-0---0----0-----0-----0----0---0---0---|
|-1---1----1-----1-----1----1---1---1---|
|-0---0----0-----0-----0----0---0---0---|
|---------------------------------------|
|---------------------------------------|
|---------------------------------------|


  Q        S  S  S  S  Q.           E
|---------12-10--8-10-12----------------|
|---------13-12-10-12-13----------------|
|---------------------------------------|
|---------------------------------------|
|---------------------------------------|
|---------------------------------------|
|
| S S S S  S  S  S  S  S  S S S S S S S
|-0---0----0-----0-----0----0---0---0---|
|-1---1----1-----1-----1----1---1---1---|
|-0---0----0-----0-----0----0---0---0---|
|---------------------------------------|
|---------------------------------------|
|---------------------------------------|


                                    G
  W                                 E    S  S E    E    Q.           E
|---------------------------------|-----10--8-7----8---10----------------|
|---------------------------------|-----12-10-8---10---12----------------|
|---------------------------------|--------------------------------------|
|---------------------------------|--------------------------------------|
|---------------------------------|--------------------------------------|
|---------------------------------|--------------------------------------|
|
| S S S S S S S S S S S S S S S S   S S  S  S S S  S S  S  S S S S S S S
|-0---0---0---0---0---0---0---0---|-3----3----3----3----3----3---3---3---|
|-1---1---1---1---1---1---1---1---|-3----3----3----3----3----3---3---3---|
|-0---0---0---0---0---0---0---0---|-4----4----4----4----4----4---4---4---|
|---------------------------------|--------------------------------------|
|---------------------------------|--------------------------------------|
|---------------------------------|--------------------------------------|


  E   S  S  Q        +E    E   Q
|-----7--8-10-------(10)---------------|
|-----8-10-12-------(12)---------------|
|--------------------------------------|
|--------------------------------------|
|--------------------------------------|
|--------------------------------------|
|
| S S S  S  S S S S   S  S S S S S S S
|-3---3-----3---3-----3----3---3---3---|
|-3---3-----3---3-----3----3---3---3---|
|-4---4-----4---4-----4----4---4---4---|
|--------------------------------------|
|--------------------------------------|
|--------------------------------------|


  D
  E    E    E    E    Q        +S  S E
|-----10----8----------------------------|
|-----12---10---10-----------------------|
|---------------11---11-------(11)-------|
|--------------------12-------(12)-------|
|----------------------------------------|
|----------------------------------------|
|
| S S  S S  S S  S S  S S S S   S  S S S
|-2----2----2----2----2---2-----2----2---|
|-3----3----3----3----3---3-----3----3---|
|-2----2----2----2----2---2-----2----2---|
|----------------------------------------|
|----------------------------------------|
|----------------------------------------|


                                        G
  E    E    E    E    Q       Q         Q        S  S S  S  Q         S  S E
|----------10----9----8---------------|---------10--8-7--8-10-------(10)-------|
|-----10---12---11---10---------------|---------12-10-8-10-12--------12--------|
|-------------------------------------|----------------------------------------|
|-----12------------------------------|----------------------------------------|
|-------------------------------------|----------------------------------------|
|-------------------------------------|----------------------------------------|
|
| S S  S S  S S  S S  S S S S S S S S   S S S S  S  S S  S  S S S S   S  S S S
|-2----2----2----2----2---2---2---2---|-3---3----3----3-----3---3-----3----3---|
|-3----3----3----3----3---3---3---3---|-3---3----3----3-----3---3-----3----3---|
|-2----2----2----2----2---2---2---2---|-4---4----4----4-----4---4-----4----4---|
|-------------------------------------|----------------------------------------|
|-------------------------------------|----------------------------------------|
|-------------------------------------|----------------------------------------|


  D
  E    S  S  S  S  S  S  S S  S  S  S  S  S S
|------8-10-12-10--8-10-12------10-12-10--8-7-|
|-----10-12-13-12-10-12-13---13-12-13-12-10-8-|
|----------------------------14---------------|
|---------------------------------------------|
|---------------------------------------------|
|---------------------------------------------|
|
| S S  S  S  S  S  S  S  S S  S  S  S  S  S S
|-2----2-----2-----2-----2----2-----2-----2---|
|-3----3-----3-----3-----3----3-----3-----3---|
|-2----2-----2-----2-----2----2-----2-----2---|
|---------------------------------------------|
|---------------------------------------------|
|---------------------------------------------|


  H               +H
|-5---------------(5)---------------|
|-7---------------(7)---------------|
|-----------------------------------|
|-----------------------------------|
|-----------------------------------|
|-----------------------------------|
|
| S S S S S S S S  S  S S S S S S S
|-2---2---2---2----2----2---2---2---|
|-3---3---3---3----3----3---3---3---|
|-2---2---2---2----2----2---2---2---|
|-----------------------------------|
|-----------------------------------|
|-----------------------------------|


  G                                     D
  E   S S S S  E    +Q.           E     E   S S S S  E    +Q.           E
|-----7-7-7-7-10---(10)---------------|-----5-5-5-5--8----(8)---------------|
|-----8-8-8-8-12---(12)---------------|-----7-7-7-7-10---(10)---------------|
|-------------------------------------|-------------------------------------|
|-------------------------------------|-------------------------------------|
|-------------------------------------|-------------------------------------|
|-------------------------------------|-------------------------------------|
|
| S S S S S S  S S   S  S S S S S S S   S S S S S S  S S   S  S S S S S S S
|-3---3---3----3-----3----3---3---3---|-2---2---2----2-----2----2---2---2---|
|-3---3---3----3-----3----3---3---0---|-3---3---3----3-----3----3---3---3---|
|-4---4---4----4-----4----4---4-------|-2---2---2----2-----2----2---2---2---|
|-------------------------------------|-------------------------------------|
|-------------------------------------|-------------------------------------|
|-------------------------------------|-------------------------------------|


                                        G
  E   S S S S  E    +Q.           E     E   S S S S  E    +Q         +S  S E
|-----5-5-5-5--8----(8)---------------|-----7-7-7-7-10---(10)-------(10)-------|
|-----7-7-7-7-10---(10)---------------|-----8-8-8-8-12---(12)-------(12)-------|
|-------------------------------------|----------------------------------------|
|-------------------------------------|----------------------------------------|
|-------------------------------------|----------------------------------------|
|-------------------------------------|----------------------------------------|
|
| S S S S S S  S S   S  S S S S S S S   S S S S S S  S S   S  S S S   S  S S S
|-2---2---2----2-----2----2---2---2---|-3---3---3----3-----3----3-----3----3---|
|-3---3---3----3-----3----3---3---3---|-3---3---3----3-----3----3-----3----3---|
|-2---2---2----2-----2----2---2---2---|-4---4---4----4-----4----4-----4----4---|
|-------------------------------------|----------------------------------------|
|-------------------------------------|----------------------------------------|
|-------------------------------------|----------------------------------------|


                                        D
  E   S S S S  E    +Q.           E     E   S S S S  E    +Q.           E
|-----7-7-7-7-10---(10)---------------|-----5-5-5-5--8----(8)---------------|
|-----8-8-8-8-12---(12)---------------|-----7-7-7-7-10---(10)---------------|
|-------------------------------------|-------------------------------------|
|-------------------------------------|-------------------------------------|
|-------------------------------------|-------------------------------------|
|-------------------------------------|-------------------------------------|
|
| S S S S S S  S S   S  S S S S S S S   S S S S S S  S S   S  S S S S S S S
|-3---3---3----3-----3----3---3---3---|-2---2---2----2-----2----2---2---2---|
|-3---3---3----3-----3----3---3---3---|-3---3---3----3-----3----3---3---3---|
|-4---4---4----4-----4----4---4---4---|-2---2---2----2-----2----2---2---2---|
|-------------------------------------|-------------------------------------|
|-------------------------------------|-------------------------------------|
|-------------------------------------|-------------------------------------|


                                          G
  Q        S S  E    S S  E    S S  E     W
|---------12---12---10---10----8----8---|-7-------------------------------|
|---------13---13---12---12---10---10---|-8-------------------------------|
|---------------------------------------|---------------------------------|
|---------------------------------------|---------------------------------|
|---------------------------------------|---------------------------------|
|---------------------------------------|---------------------------------|
|
| S S S S  S S  S S  S S  S S  S S  S S   S S S S S S S S S S S S S S S S
|-2---2----2----2----2----2----2----2---|-3---3---3---3---3---3---3---3---|
|-3---3----3----3----3----3----3----3---|-3---3---3---3---3---3---3---3---|
|-2---2----2----2----2----2----2----2---|-4---4---4---4---4---4---4---4---|
|---------------------------------------|---------------------------------|
|---------------------------------------|---------------------------------|
|---------------------------------------|---------------------------------|


  D                                 G
  W                                 E   S S S S  E    +Q.           E
|---------------------------------|-----7-7-7-7-10---(10)---------------|
|---------------------------------|-----8-8-8-8-12---(12)---------------|
|---------------------------------|-------------------------------------|
|---------------------------------|-------------------------------------|
|---------------------------------|-------------------------------------|
|---------------------------------|-------------------------------------|
|
| S S S S S S S S S S S S S S S S   S S S S S S  S S   S  S S S S S S S
|-2---2---2---2---2---2---2---2---|-3---3---3----3-----3----3---3---3---|
|-3---3---3---3---3---3---3---3---|-3---3---3----3-----3----3---3---0---|
|-2---2---2---2---2---2---2---2---|-4---4---4----4-----4----4---4-------|
|---------------------------------|-------------------------------------|
|---------------------------------|-------------------------------------|
|---------------------------------|-------------------------------------|


  D
  E   S S S S  E    +Q.           E     E   S S S S  E    +Q.           E
|-----5-5-5-5--8----(8)---------------|-----5-5-5-5--8----(8)---------------|
|-----7-7-7-7-10---(10)---------------|-----7-7-7-7-10---(10)---------------|
|-------------------------------------|-------------------------------------|
|-------------------------------------|-------------------------------------|
|-------------------------------------|-------------------------------------|
|-------------------------------------|-------------------------------------|
|
| S S S S S S  S S   S  S S S S S S S   S S S S S S  S S   S  S S S S S S S
|-2---2---2----2-----2----2---2---2---|-2---2---2----2-----2----2---2---2---|
|-3---3---3----3-----3----3---3---3---|-3---3---3----3-----3----3---3---3---|
|-2---2---2----2-----2----2---2---2---|-2---2---2----2-----2----2---2---2---|
|-------------------------------------|-------------------------------------|
|-------------------------------------|-------------------------------------|
|-------------------------------------|-------------------------------------|


  G
  E   S S S S  E    +Q         +S  S E     E   S S S S  E    +Q.           E
|-----7-7-7-7-10---(10)-------(10)-------|-----7-7-7-7-10---(10)---------------|
|-----8-8-8-8-12---(12)-------(12)-------|-----8-8-8-8-12---(12)---------------|
|----------------------------------------|-------------------------------------|
|----------------------------------------|-------------------------------------|
|----------------------------------------|-------------------------------------|
|----------------------------------------|-------------------------------------|
|
| S S S S S S  S S   S  S S S   S  S S S   S S S S S S  S S   S  S S S S S S S
|-3---3---3----3-----3----3-----3----3---|-3---3---3----3-----3----3---3---3---|
|-3---3---3----3-----3----3-----3----3---|-3---3---3----3-----3----3---3---3---|
|-4---4---4----4-----4----4-----4----4---|-4---4---4----4-----4----4---4---4---|
|----------------------------------------|-------------------------------------|
|----------------------------------------|-------------------------------------|
|----------------------------------------|-------------------------------------|


  D
  E   S S S S  E    Q.           E     Q        S S  E    S S  E    S S  E
|-----5-5-5-5--8---(8)---------------|---------12---12---10---10----8----8---|
|-----7-7-7-7-10---10----------------|---------13---13---12---12---10---10---|
|------------------------------------|---------------------------------------|
|------------------------------------|---------------------------------------|
|------------------------------------|---------------------------------------|
|------------------------------------|---------------------------------------|
|
| S S S S S S  S S  S  S S S S S S S   S S S S  S S  S S  S S  S S  S S  S S
|-2---2---2----2----2----2---2---2---|-2---2----2----2----2----2----2----2---|
|-3---3---3----3----3----3---3---3---|-3---3----3----3----3----3----3----3---|
|-2---2---2----2----2----2---2---2---|-2---2----2----2----2----2----2----2---|
|------------------------------------|---------------------------------------|
|------------------------------------|---------------------------------------|
|------------------------------------|---------------------------------------|


  G                                 D
  W                                 W
|-7-------------------------------|---------------------------------|
|-8-------------------------------|---------------------------------|
|---------------------------------|---------------------------------|
|---------------------------------|---------------------------------|
|---------------------------------|---------------------------------|
|---------------------------------|---------------------------------|
|
| S S S S S S S S S S S S S S S S   S S S S S S S S S S S S S S S S
|-3---3---3---3---3---3---3---3---|-2---2---2---2---2---2---2---2---|
|-3---3---3---3---3---3---3---3---|-3---3---3---3---3---3---3---3---|
|-4---4---4---4---4---4---4---4---|-2---2---2---2---2---2---2---2---|
|---------------------------------|---------------------------------|
|---------------------------------|---------------------------------|
|---------------------------------|---------------------------------|


  G                                     D
  E   S S S S  E    +Q.           E     E   S S S S  E    +Q.           E
|-----7-7-7-7-10---(10)---------------|-----5-5-5-5--8----(8)---------------|
|-----8-8-8-8-12---(12)---------------|-----7-7-7-7-10---(10)---------------|
|-------------------------------------|-------------------------------------|
|-------------------------------------|-------------------------------------|
|-------------------------------------|-------------------------------------|
|-------------------------------------|-------------------------------------|
|
| S S S S S S  S S   S  S S S S S S S   S S S S S S  S S   S  S S S S S S S
|-3---3---3----3-----3----3---3---3---|-2---2---2----2-----2----2---2---2---|
|-3---3---3----3-----3----3---3---0---|-3---3---3----3-----3----3---3---3---|
|-4---4---4----4-----4----4---4-------|-2---2---2----2-----2----2---2---2---|
|-------------------------------------|-------------------------------------|
|-------------------------------------|-------------------------------------|
|-------------------------------------|-------------------------------------|


                                       G
  E   S S S S  E    Q.           E     E   S S S S  E    +Q         +S  S E
|-----5-5-5-5--8---(8)---------------|-----7-7-7-7-10---(10)-------(10)-------|
|-----7-7-7-7-10---10----------------|-----8-8-8-8-12---(12)-------(12)-------|
|------------------------------------|----------------------------------------|
|------------------------------------|----------------------------------------|
|------------------------------------|----------------------------------------|
|------------------------------------|----------------------------------------|
|
| S S S S S S  S S  S  S S S S S S S   S S S S S S  S S   S  S S S   S  S S S
|-2---2---2----2----2----2---2---2---|-3---3---3----3-----3----3-----3----3---|
|-3---3---3----3----3----3---3---3---|-3---3---3----3-----3----3-----3----3---|
|-2---2---2----2----2----2---2---2---|-4---4---4----4-----4----4-----4----4---|
|------------------------------------|----------------------------------------|
|------------------------------------|----------------------------------------|
|------------------------------------|----------------------------------------|


                                        D
  E   S S S S  E    +Q.           E     E   S S S S  E    +Q.           E
|-----7-7-7-7-10---(10)---------------|-----5-5-5-5--8----(8)---------------|
|-----8-8-8-8-12---(12)---------------|-----7-7-7-7-10---(10)---------------|
|-------------------------------------|-------------------------------------|
|-------------------------------------|-------------------------------------|
|-------------------------------------|-------------------------------------|
|-------------------------------------|-------------------------------------|
|
| S S S S S S  S S   S  S S S S S S S   S S S S S S  S S   S  S S S S S S S
|-3---3---3----3-----3----3---3---3---|-2---2---2----2-----2----2---2---2---|
|-3---3---3----3-----3----3---3---3---|-3---3---3----3-----3----3---3---3---|
|-4---4---4----4-----4----4---4---4---|-2---2---2----2-----2----2---2---2---|
|-------------------------------------|-------------------------------------|
|-------------------------------------|-------------------------------------|
|-------------------------------------|-------------------------------------|


                                          G
  Q        S S  E    S S  E    S S  E     W
|---------12---12---10---10----8----8---|-7-------------------------------|
|---------13---13---12---12---10---10---|-8-------------------------------|
|---------------------------------------|---------------------------------|
|---------------------------------------|---------------------------------|
|---------------------------------------|---------------------------------|
|---------------------------------------|---------------------------------|
|
| S S S S  S S  S S  S S  S S  S S  S S   S S S S S S S S S S S S S S S S
|-2---2----2----2----2----2----2----2---|-3---3---3---3---3---3---3---3---|
|-3---3----3----3----3----3----3----3---|-3---3---3---3---3---3---3---3---|
|-2---2----2----2----2----2----2----2---|-4---4---4---4---4---4---4---4---|
|---------------------------------------|---------------------------------|
|---------------------------------------|---------------------------------|
|---------------------------------------|---------------------------------|


  D
  Gtr II
   S  S S S S S S S S S S S S S S S
|--2----2---2---2---2---2---2---2---*|
|--3----3---3---3---3---3---3---3---*|
|--2----2---2---2---2---2---2---2---*|
|-----------------------------------*|
|-----------------------------------*|
|-----------------------------------*|
|
| Gtr III
|  H.                       Q
|-----------------------------------*|
|-10--------------------------------*|
|-11--------------------------------*|
|-----------------------------------*|
|-----------------------------------*|
|-----------------------------------*|


FIN!!!
- BUENO AQUI ABAJO ESTA EL SIGNIFICADO DE LAS LETRAS Y LOS SIGNOS...
- ESPERO QUE LES HAYA AGRADADO Y SOBRETODO QUE LE HAYAN ENTENDIDO...
- POR SI ALGUNA RAZON NO LE ENTIENDEN PUES HECHENME UN MAIL A: sNaKePiTs@guitar.com
- SI QUIEREN ALGUNA PETICION PUES TAMBIEN HECHENME UN MAIL...
- ESTA CANCION Y OTRAS LAS TENGO EN ARCHIVOS POWERTAB, POR SI ALGUIEN LA QUIERE...
  PUES HECHENME UN MAIL PIDIENDOLAS...
- LOS VERE EN LA PROXIMA CANCION!!!...


NESTOR SADAO ARECHIGA CERVANTES (sNaKePiTs@guitar.com)


Duration Legend
---------------
W - whole; H - half; Q - quarter; E - 8th; S - 16th; T - 32nd; X - 64th; a - acciaccatura
+ - note tied to previous; . - note dotted; .. - note double dotted
Uncapitalized letters represent notes that are staccato (1/2 duration)
Irregular groupings are notated above the duration line
Duration letters will always appear directly above the note/fret number it represents the
duration for.  Duration letters with no fret number below them represent rests.  Multi-
bar rests are notated in the form Wxn, where n is the number of bars to rest for.  Low
melody durations appear below the staff

Tablature Legend
----------------
 h   - hammer-on
 p   - pull-off
 B   - bend
 pb  - pre-bend
 r   - bend release (if no number after the r, then release immediately)
 /\  - slide into or out of (from/to "nowhere")
 s   - legato slide
 S   - shift slide
<n>  - natural harmonic
[n]  - artificial harmonic
n(n) - tapped harmonic
 ~   - vibrato
 tr  - trill
 T   - tap
 TP  - trem. picking
 PM  - palm muting
\n/  - tremolo bar dip; n = amount to dip
 \n  - tremolo bar down
 n/  - tremolo bar up
/n\  - tremolo bar inverted dip
 =   - hold bend; also acts as connecting device for hammers/pulls
 <>  - volume swell [louder/softer]
 x   - on rhythm slash represents muted slash
 o   - on rhythm slash represents single note slash

Misc Legend
-----------
 |  - bar
||  - double bar
||o - repeat start
o|| - repeat end
*|  - double bar [ending]
 :  - bar (freetime)
 $  - Segno
 &  - Coda
Tempo markers - <E/E./Q/Q./H/H.> = BPM(8/16=s8/s16), where s8 = swing 8ths, s16 = swing 16ths
Envía el tono de "El Ultimo Adios" a tu celular/móvil
Este fichero es trabajo propio de su transcriptor y representa su interpretación personal de la canción. El material contenido en esta página es
para exclusivo uso privado, por lo que se prohibe su reproducción o retransmisión, así como su uso para fines comerciales.
© LaCuerda.net · Aviso Legal · Privacidad