Tablatura para Guitarra de Patricio Rey y sus Redonditos de Ricota: Yo caníbal
Conexión · Inscripción
Letras y Acordes
Pantalla Completa
Imprimir
Versión Texto
Añadir Favorito
Otras Versiones

Mostrar Diagramas
Desfile Automático
Manipular Acordes
Formato del Texto

Patricio Rey y sus Redonditos de Ricota
Yo caníbal(TAB)
calidad:
redo0971
AUTOR: Beilinson-Solari
ALBUM: Lobo suelto, cordero atado II (1993)
Enviado por Nacho
YO CANIBAL

    D                  Bb
E|------------------------10-10-10---|--|
B|---------------------/--11-11-11-/-|--|
G|-2-------------2-3-2-/--10-10-10-/-|x4|
D|-0--0-0-0-0-0--0-0-0---------------|--|
A|-----------------------------------|--|
E|-----------------------------------|--|
     PM......                              PM......

Entra la batería:
   D                    Bb
|-------------------------10-10-10----|--|
|----------------------/--11-11-11-/--|--|
|-2--------------2-3-2-/--10-10-10-/--|x4|
|-0---0-0-0-0-0--0-0-0----------------|--|
|-------------------------------------|--|
|-------------------------------------|--|

  Am                           Bb
E|-0-0---0------|-----------------------------------|
B|-1-1-----1----|-----------------------------------|
G|-2-2-------(2)|-(3)-3-3-3-3-3-3-3--3---3--3-3-3---|
D|-2-2----------|-(3)-3-3-3-3-3-3-3--3---3--3-3-3---|
A|-0-0----------|-(1)-1-1-1-1-1-1-1--0-h-1--1-1-1-0-|
E|--------------|-----------------------------------|

 Am         Bb
|-0---0-0-|-0-0-1-----0-1--------|
|---1-----|--------3-------3---3-|
|---------|---------3--------3---|
|---------|----------------------|
|---------|----------------------|
|---------|----------------------|



 VERSO 1: Igual a la intro

    D                  Bb
E|----------------------10-10-10---|--|
B|-------------------/--11-11-11-/-|--|
G|-2-----------2-3-2-/--10-10-10-/-|x4|
D|-0--0-0-0-0--0-0-0---------------|--|
A|---------------------------------|--|
E|---------------------------------|--|
     PM......                              PM......
   D                    Bb
|-----------------------10-10-10----|--|
|--------------------/--11-11-11-/--|--|
|-2------------2-3-2-/--10-10-10-/--|x4|
|-0---0-0-0-0--0-0-0----------------|--|
|-----------------------------------|--|
|-----------------------------------|--|


No se entiende el menú pero la salsa abunda.
Soy un gourmet que huele eternamente mal.








Guitarra:

  Am
E|-0-0-0-0-0--0------|
B|-1-1-1-1-1----1----|
G|-2-2-2-2-2------(2)|
D|-2-2-2-2-2---------|
A|-0-0-0-0-0---------|
E|-------------------|

  Bb
|-----------------------------------|------|------|
|-----------------------------------|------|------|
|-(3)-3-3-3-3-3-3-3--3---3--3-3-3---|------|------|
|-(3)-3-3-3-3-3-3-3--3---3--3-3-3---|--Am--|--Bb--|
|-(1)-1-1-1-1-1-1-1--0-h-1--1-1-1-0-|------|------|
|-----------------------------------|------|------|
VERSO 2:

A5
Viejas compotas que no dan respiro
Bb5
Al caníbal que hay en mí,
A5                                 Bb5
Que no es bien recibido en un banquete así.


VERSO 3: (igual al 1)

Se amasan las fortunas, se cargan los bolsillos.
De presa seca, de oro falso, de vermouth.


VERSO 4: (Igual al 2)

A5
Me acaban el cerebro a mordiscos
Bb5
Bebiendo el jugo de mi corazón
A5                         Bb5
Y me cuentan cuentos al ir a dormir.  Ooh...


ESTRIBILLO:

F5     C5            Bb5
Un cordero de mi estilo.
F5    C5             Bb5
Un caníbal de mi estilo.

Guitarra:

e|----------|----------|---------------------------------|
B|----------|----------|---------------------------------|
G|----------|----------|---------------------------------|X2
D|--F5------|--C5------|-(3)-3-3-3-3-3-3-3--3-3--3-3-3---|
A|----------|----------|-(1)-1-1-1-1-1-1-1--0h1--1-1-1-0-|
E|----------|----------|---------------------------------|


ARREGLO DE SAXO ADAPTADO PARA GUITARRA:
(Se acompaña con la guitarra al igual que el verso 1)

e|-12-13-13--13---------18-17--|
B|-------------10--------------|
G|-----------------------------|
D|-----------------------------|
A|-----------------------------|
E|-----------------------------|


SOLO DE GUITARRA

    Bb            Am
E|--------------------------- |
B|-----------------12~--------|
G|-------------10-------------|
D|--------10-12--12-----------|
A|-8-10-12------------12-12/6-|
E|----------------------------|
         Bb                    Am
--------------------------------------------|
-----------------------10-------------------|
------------12-10-12-10--12-10-9-10-10------|
-------10-12--------------------------10-10-|
-10-12--------------------------------------|
--------------------------------------------|

   Bb
e|------------------------------------10~-|
B|-------------------------10-------------|
G|-------------12-10-12-10----12-12b------|
D|-------10-12----------------------12----|
A|-10-12----------------------------------|
E|----------------------------------------|


VERSO 5: (igual al 1)


Voy al coliseo a prenderme fuego.
Mi racha de novato nunca cambiará.


VERSO 6 (igual 2)

LAm
Por favor que el adiós no se alargue.
SIb
Me cansé de tanto esperar.
LAm                            SIb
Cuando el fuego crezca quiero estar allí. Uoohh...


ESTRIBILLO:

F5     C5          Bb5
Un cordero de mi estilo.
F5    C5           Bb5
Un caníbal de mi estilo.
F5     C5          Bb5
Un cordero de mi estilo.

Guitarra:

E|----------|----------|---------------------------------|
B|----------|----------|---------------------------------|
G|----------|----------|---------------------------------|X4
D|--F5------|-C5-------|-(3)-3-3-3-3-3-3-3--3-3--3-3-3---|
A|----------|----------|-(1)-1-1-1-1-1-1-1--0h1--1-1-1-0-|
E|----------|----------|---------------------------------|



F5    C5           Bb5                  D5
Un caníbal de mi estilo.       Uoo    Oooh




Temazo dedicado para Nico Vezza el chino y ema...
Espero que les salga.
Es muy fácil. Aguanten Los Redondos…
Envía el tono de "Yo caníbal" a tu celular/móvil
Este fichero es trabajo propio de su transcriptor y representa su interpretación personal de la canción. El material contenido en esta página es
para exclusivo uso privado, por lo que se prohibe su reproducción o retransmisión, así como su uso para fines comerciales.
© LaCuerda.net · Aviso Legal · Privacidad