Tablatura para Bajo de Patricio Rey y sus Redonditos de Ricota: Vamos Las Bandas
Conexión · Inscripción
Letras y Acordes
Pantalla Completa
Imprimir
Versión Texto
Añadir Favorito
Otras Versiones

Mostrar Diagramas
Desfile Automático
Formato del Texto


Patricio Rey y sus Redonditos de Ricota
Vamos Las Bandas(BAJ)
calidad:
redo0942
AUTOR: Patricio Rey y sus Redonditos de Ricota  corregir
ALBUM: desconocido
Enviado por Sebastián
Intro
G|--------|
D|--------|
A|-5(x24)-|
E|--------|

 |--------------------|x4
 |------------2-5-----|
 |---2-5----3-----3---|
 |-3-----3------------|

 |--------|
 |--------|
 |-5(x24)-|
 |--------|

 |--------------------|x4
 |------------2-5-----|
 |---2-5----3-----3---|
 |-3-----3------------|

Verso
G|---------------|------------|
D|---------------|------------|
A|-5--5--4--55-4-|-3--3--33-4-|
E|---------------|------------|

 |------------|--------------|
 |------------|--------------|
 |-3--3--33-4-|-3-----2-5----|
 |------------|-----3-----3--|

Coro
G|------------------|x3
D|------------2-5---|
A|---2-5----3----3--|
E|-3-----3----------|

Verso
G|---------------|------------|
D|---------------|------------|
A|-5--5--4--55-4-|-3--3--33-4-|
E|---------------|------------|

 |------------|--------------|
 |------------|--------------|
 |-3--3--33-4-|-3-----2-5----|
 |------------|-----3-----3--|

Coro
G|------------------|x3
D|------------2-5---|
A|---2-5----3----3--|
E|-3-----3----------|

Puente
G|--------|
D|--------|
A|-5(x24)-|
E|--------|

SolodePiano+SolodeSaxo
G|----------------------------------|x8
D|---2-5-----2-5--------------------|
A|-3-----3-3-----3----2-5-----2-5---|
E|------------------3-----3-3-----3-|

Coro
G|------------------|x3
D|------------2-5---|
A|---2-5----3----3--|
E|-3-----3----------|

Verso
G|---------------|------------|
D|---------------|------------|
A|-5--5--4--55-4-|-3--3--33-4-|
E|---------------|------------|

 |------------|--------------|
 |------------|--------------|
 |-3--3--33-4-|-3-----2-5----|
 |------------|-----3-----3--|

Coro
G|------------------|x3
D|------------2-5---|
A|---2-5----3----3--|
E|-3-----3----------|

Verso
G|---------------|------------|
D|---------------|------------|
A|-5--5--4--55-4-|-3--3--33-4-|
E|---------------|------------|

 |------------|--------------|
 |------------|--------------|
 |-3--3--33-4-|-3-----2-5----|
 |------------|-----3-----3--|

Coro
G|------------------|x3
D|------------2-5---|
A|---2-5----3----3--|
E|-3-----3----------|

Puente
G|--------|
D|--------|
A|-5(x24)-|
E|--------|

SolodeSaxo+SolodeGuitarra
G|----------------------------------|x8
D|---2-5-----2-5--------------------|
A|-3-----3-3-----3----2-5-----2-5---|
E|------------------3-----3-3-----3-|

Coro
G|------------------|x3
D|------------2-5---|
A|---2-5----3----3--|
E|-3-----3----------|

Final
G|--------------------|
D|--------------------|
A|-5(x10)----3--3-4-5-|
E|--------33----------|

Escuchá la canción para saber el ritmo
Este fichero es trabajo propio de su transcriptor y representa su interpretación personal de la canción. El material contenido en esta página es
para exclusivo uso privado, por lo que se prohibe su reproducción o retransmisión, así como su uso para fines comerciales.
© LaCuerda.net · Aviso Legal · Privacidad