Tablatura para Guitarra de Patricio Rey y sus Redonditos de Ricota: Pura suerte
Conexión · Inscripción
Letras y Acordes
Pantalla Completa
Imprimir
Versión Texto
Añadir Favorito
Otras Versiones

Mostrar Diagramas
Desfile Automático
Manipular Acordes
Formato del Texto


Patricio Rey y sus Redonditos de Ricota
Pura suerte(TAB)
calidad:
redo1274
AUTOR: Patricio Rey y sus Redonditos de Ricota  corregir
ALBUM: Ineditos (teatro de San Telmo) (1982)
Enviado por juliàn
Intro:
              Riff
   (F#)        (F#)
e|------0-----|-----------0--------------0--
B|-----0-0----|-----------------------------
G|----0---0---|-----------------------------
D|---4-----4--|-4--------4--4-4--------4----
A|--4---------|-4---7-5-4---4-4---7-5-4-----
E|-2----------|-2-----------2-2-------------

A
Que un sueño acabó, ya te dijeron...
                                   Riff
pero no que todos los sueñitos, no.
A
Arrugar no es ir al saladero.
                                        Riff
Pero ¡ay! mi viejo... ¡ay! qué rabia da.
A
Yo no puedo librarme
A:
E||--0--||
B||--5--||
G||--6--||
D||--7--||
A||-----||
E||-----||
D:
E||-------||
B||--(7)--||
G||---7---||
D||---7---||
A||-------||
E||-------||
E:
E||-------||
B||--(9)--||
G||---9---||
D||---9---||
A||-------||
E||-------||



D              E
a lo que te debo como ilusión.


Repite
¡Ay! Si pudiera como si fuera un chico

emborrachar el ritmo de un maldito rock...


Pero hay un par de ojos inclaudicables
que valió la pena alquilar para ver.
Imaginá los planes que en mi mente están
tan sin dolor.

Solo (E)
Pista 1

E||-------------------|----------------------|-----------------
B||--0----------------|----------------------|-----------------
G||--1----------------|----------------------|-----------------
D||--2----------------|--7---6---------------|------------------
A||--2----------------|------------7---5~----|-------------5--7
E||-------------------|----------------------|-------5--7-------

-------------------|-------------------|------------------------
-------------------|--x--7--x--x--7~---|--7--x--x--7--x--7--9--9-
-------------------|--x--7--x--x--7----|--7--x--x--7--x--7--9--9~
--2----------------|-------------------|-------------------------
-------0--0--------|-------------------|-------------------------


-----------------------------|---------------------|---------------
------9--10--9--------10--9--|---------------------|--7------------
----9-----------9~-----------|--9--7--x--x--7------|-------7-------
--9--------------------------|-----7--x--x--7------|----------7----
-----------------------------|---------------------|---------------
-----------------------------|---------------------|---------------


-------------------------|--------------------------|
-------------------------|--9--------(9)------------|
--7--7--7--9~------------|-----9-----(9)------------|
--7--7--7--9~------------|--------9---6-------------|
-------------------------|--------------------------|
-------------------------|--------------------------|



--------------10---------10--|---------10---------10---------|
-------9--10------9--10------|--9--10------9--10------9--10--|
-----------------------------|-------------------------------|
-----------------------------|-------------------------------|
-----------------------------|-------------------------------|
-----------------------------|-------------------------------|



--10--10--10---9------9---9--7--|-----7--7--5-----5--5--4--|
------10--10--10-----10--10--9--|-----9--9--7-----7--7--5--|
--------------------------------|--------------------------|
--------------------------------|--------------------------|
--------------------------------|--------------------------|
--------------------------------|--------------------------|
-------------------------
------5----3------
-----(4)--(2)---
----------------
--------------
---------------

seguir de acuerdo al tema

E||--2----------2--------2-----|---------------------------|
B||-------5--3-----5--3-----5--|--3--3s--5--5-----5--5--5--|
G||----------------------------|---------------------------|
D||----------------------------|---------------------------|
A||----------------------------|---------------------------|
E||----------------------------|---------------------------|


--------------------------|--------------------------|
--3--3--3--3--5--5--5--5--|--7--7--7--7--9--9--9--9--|
--------------------------|--------------------------|
--------------------------|--------------------------|
--------------------------|--------------------------|
--------------------------|--------------------------|



------------------------------------|---------14---17--14------|
--10--10--10--10--12--14--15--17~---|------15--------------15--|
------------------------------------|---14---------------------|
------------------------------------|--------------------------|
------------------------------------|--------------------------|
------------------------------------|--------------------------|


--17--14------17--14------17--14--|
----------15----------15----------|
----------------------------------|
----------------------------------|
----------------------------------|
----------------------------------|



------17--14------17----17----17----17----14--|
--15----------15------------------------------|
----------------------------------------------|
----------------------------------------------|
----------------------------------------------|
----------------------------------------------|



----14----14----14----14----14----|-----12-----
----------------------------------|-----12-----
----------------------------------|-----------
----------------------------------|-----------
----------------------------------|-----------
----------------------------------|------------


---------------------------------|-----------------------
---------------------------------|------------------------
---------------------------------|------------------------
---------------------------------|-------------------------
----------------0--2--5-----7~---|--------0--2--5-----7~--
--0---------0--------------------|--0--0-----------------



     ... siguendo el ritmo
----------------------------|-----------------------
----------------------------|-----------------------
----------------------------|-----------------------
----------------------------|--------7-----6--6-----
--------0--2--5--5--7--5----|--------------------7~-
--0--0----------------------|--0--0-----------------



--------------------------|------------------------
--------------------------|------------------------
--------------------------|------------------------
--------------------------|--------7-----6--6------
--------0--2--5--5--7--5--|--------------------7~--
--0--0--------------------|--0--0------------------



--------------------------|------------------------
--------------------------|------------------------
--------------------------|--------4-----3--3------
--------------2--2--4--2--|--------------------4~--
--------2--4--------------|------------------------
--2--2--------------------|--2--2------------------



--------------------------|-----------------------
--------------------------|-----------------------
--------------------------|--------4-----3--3-----
--------------2--2--4--2--|--------------------4~-
--------2--4--------------|-----------------------
--2--2--------------------|--2--2-----------------


--------------------------|-----------------------
--------------------------|-----------------------
--------------2--2--4--2--|--------7-----6--6-----
--------2--4--------------|--------------------7~-
--2--2--------------------|-----------------------
--------------------------|-----------------------


--------------------------|-----------------------
--------------------------|------------------------
--------------2--2--4--2--|--------7-----6--6------
--------2--4--------------|--------------------7~--
--2--2--------------------|------------------------
--------------------------|-------------------------

--------------------------|-----------------------
--------------------------|-----------------------
--------------------------|-----------------------
--------------------------|-----------------------
--------0--2--5-----7~----|--------0--2--5-----7v
--0--0--------------------|--0--0-------------------
                                           MI
--------------------------|--------------------0--||
--------------------------|--------------------0--||
--------------------------|--------------------1--||
--------------------------|--------------------2--||
--------7--------5--------|--4--------3--------2--||
--0--0-----0--0-----0--0--|-----0--0-----0--0-----||


E5         D5
Esto ya...
... esto ya no es rock, mi amor: -es pura suerte-.

Pura suerte original Demos RCA 1982.
el la primer tab que subo
fijense ustedes la cantidad de veces que se tocan los riff.
aguante los redondos!!!!¡¡¡
Este fichero es trabajo propio de su transcriptor y representa su interpretación personal de la canción. El material contenido en esta página es
para exclusivo uso privado, por lo que se prohibe su reproducción o retransmisión, así como su uso para fines comerciales.

© LaCuerda.net · Aviso Legal · Privacidad