Tablatura para Bajo de Patricio Rey y sus Redonditos de Ricota: Pura suerte
Conexión · Inscripción
Letras y Acordes
Pantalla Completa
Imprimir
Versión Texto
Añadir Favorito
Otras Versiones

Mostrar Diagramas
Desfile Automático
Formato del Texto


Patricio Rey y sus Redonditos de Ricota
Pura suerte(BAJ)
calidad:
redo1273
AUTOR: Patricio Rey y sus Redonditos de Ricota  corregir
ALBUM: Ineditos (teatro de San Telmo) (1982)
Enviado por Manuel
En esta cancion el bajo hace casi lo mismo que la guitarra
pero igual lo paso po que en el solo de guitarra es diferente...

intro
[---------------|        
[---------------|        
[---------------|      
[--2--------2---| 

[---------------|  |---------------|
[---------4-----|  |---------------|
[--7--5-4-------|x3|--7--5-4-------|
[---------------|  |---------------|

verso 1 ('...que un sueño acaboya te dijeron...')
[------------------------------------|
[------------------------------------|
[------------------------------------|
[--5----5x5----5x5---5----5x5----5x--|( todos los versos son iguales)

estribillo(final)('...esto ya esto ya no es rockN'roll...')
[---------------------|
[--------0------------|(varias veces)
[-----3---------------|
[--0------------------|
durante el solo de guitarra
[------------------------------------|
[------------------------------------|
[-----------5-4----------------------|
[--0-0--3-3--------------------------|
hasta el final...que hace re osea:
[-----|
[-----|
[--5--|dejar sonando|
[-----|
Espero que les sirva!
Aguanten los redondos!
y todo el rock nacional!
Luca No se Murio! Luca No se Murio!
Que se Muera Cerati La Pu-- Madre Que Lo Pario!
Este fichero es trabajo propio de su transcriptor y representa su interpretación personal de la canción. El material contenido en esta página es
para exclusivo uso privado, por lo que se prohibe su reproducción o retransmisión, así como su uso para fines comerciales.

© LaCuerda.net · Aviso Legal · Privacidad