Letra y Acordes de Patricio Rey y sus Redonditos de Ricota: Pura suerte
Conexión · Inscripción
Letras y Acordes
Pantalla Completa
Imprimir
Versión Texto
Añadir Favorito
Otras Versiones

Mostrar Diagramas
Desfile Automático
Manipular Acordes
Formato del Texto


Patricio Rey y sus Redonditos de Ricota
Pura suerte
calidad:
redo1272
AUTOR: Patricio Rey y sus Redonditos de Ricota  corregir
ALBUM: Ineditos (teatro de San Telmo) (1982)
Enviado por Matias, basado en Federico
Intro

|--------------0---------|--------------0-----|-----------------|
|------------0---0-------|------------0---0---|-----------------|
|----------0-------0-----|----------0-------0-|-----------------|
|--------4---------------|--------4-----------|-----------------|
|------4-----------------|------4-------------|--------------4--|
|----2-------------------|----2---------------|--2-0-2-0-2-0----|

Punteo
|----------------------|        |--------------|
|--------------5-------|        |--------------|
|----------------------|        |--------------|
|-----------4------4---| X3 y   |--------------|
|--7--5--4-------------|        |--7--5--4--0--|
|----------------------|        |--------------|

A
Que un sueno acabo ya te dijeron pero no que todos los suenitos no Punteo Arrugar no es ir al saladero pero ay, mi viejo, ay que rabia da Punteo Estribillo Yo no puedo librarme a lo que te debo como ilusion Punteo Si pudiera como si fuera un chico emborrachar el ritmo de un maldito Rock Punteo Pero ha y un par de ojos inclaudicables que valio la pena alquilar para ver Punteo imagina los planes que en mi mente estan tan sin dolor hay arregle un par de acordes para que sueñe mucho mejor como en obras 1991. Vammos los Redondos!!
Este fichero es trabajo propio de su transcriptor y representa su interpretación personal de la canción. El material contenido en esta página es
para exclusivo uso privado, por lo que se prohibe su reproducción o retransmisión, así como su uso para fines comerciales.

© LaCuerda.net · Aviso Legal · Privacidad