Tablatura para Guitarra de Patricio Rey y sus Redonditos de Ricota: Preso en mi ciudad
Conexión · Inscripción
Letras y Acordes
Pantalla Completa
Imprimir
Versión Texto
Añadir Favorito
Otras Versiones

Mostrar Diagramas
Desfile Automático
Manipular Acordes
Formato del Texto

Patricio Rey y sus Redonditos de Ricota
Preso en mi ciudad(TAB)
calidad:
redo0683
AUTOR: (solari-beilinson)
ALBUM: Oktubre
Enviado por Cristian
            (%%: REPITE LO ANTERIOR)
                 (~: VIBRATO)

---INTRO

1|---------------------------------------------------
2|---------------------------------------------------
3|---------------------------------------------------
4|--------------------------------------------------- (x2)
5|---------------------------------------------------
6|-5-5-0-5-5-0-5-5-0-5-0-5-0-7-7-0-7-7-0-7-0-7-0-7-0-

PARTE A
1|--------------------------------|----|-
2|--------------------------------|----|-
3|-4-2-4-2------------------------|-%%-|-
4|----------5-4-2-4-5---2-4-5-----|----|-
5|--------------------2-------2p0-|----|-
6|--------------------------------|----|-

PARTE B
1|-------------------------------------------------
2|-------------------------------------------------
3|-------------------------------------------------
4|-------2-------2---4-2-4---4-2-4-------2-------2-
5|-2-4-5---2-4-5---0-------0-------2-4-5---2-4-5---
6|-------------------------------------------------

1|-------------------------
2|-------------------------
3|-----------------2-2-2-2-
4|-------------------------
5|-0-0-0-0-0-0-2-0---------
6|-------------------------

---ESTROFAS

 (PARTE A)
Una vez le hice el amor a un drácula con tacones
era un "pop" violento que guió el gran estio siniestro
 (PARTE B)
ahora ya no llora...
preso en mi ciudad (ja-ja-ja!!!)
casi ya no llora, atrapado en libertad!


 (PARTE A)
Practicamos tiro al pichón
y un test para ir al espacio
con mi delicioso campeón
y el rock como todo llanto
 (PARTE B)
ahora ya no llora...
preso en mi ciudad (ja-ja-ja!!!)
casi ya no llora, atrapado en libertad!


 (PARTE A)
Fue un esclavo sensible y chillón
y fácil para el gatillo
atrapó un beso bienhechor con ojos al rojo vivo

SOLO DE SAXO 1: PARTE B

 (PARTE A)
Una vez le hice el amor a un drácula con tacones
era un "pop" violento que guió el gran estio siniestro
 (PARTE B)
ahora ya no llora...
preso en mi ciudad (ja-ja-ja!!!)
casi ya no llora, atrapado en libertad!


 (PARTE A)
Practicamos tiro al pichón
y un test para ir al espacio
con mi delicioso campeón
y el rock como todo llanto
 (PARTE B)
ahora ya no llora...
preso en mi ciudad (ja-ja-ja!!!)
casi ya no llora, atrapado en libertad!

SOLO DE SAXO 2: PARTE B

---FINAL

1|--------
2|-4-2~~~-
3|--------
4|--------
5|--------
6|--------
Envía el tono de "Preso en mi ciudad" a tu celular/móvil
Este fichero es trabajo propio de su transcriptor y representa su interpretación personal de la canción. El material contenido en esta página es
para exclusivo uso privado, por lo que se prohibe su reproducción o retransmisión, así como su uso para fines comerciales.
© LaCuerda.net · Aviso Legal · Privacidad