Tablatura para Guitarra de Patricio Rey y sus Redonditos de Ricota: Pool, averna y papusa
Conexión · Inscripción
Letras y Acordes
Pantalla Completa
Imprimir
Versión Texto
Añadir Favorito
Otras Versiones

Mostrar Diagramas
Desfile Automático
Manipular Acordes
Formato del Texto

Patricio Rey y sus Redonditos de Ricota
Pool, averna y papusa(TAB)
calidad:
redo1121
AUTOR: Belinson - Solari
ALBUM: Momo Sampler (2000)
Enviado por Maximiliano
Introducion:

Am: Lo toca de esta manera:

e--------5-------5--------5--.
b--------5-------5--------5--.
g--------5-------5--------5--.
d---7-7----7-7-7---7-7-7-----.
a---7-7----7-7-7---7-7-7-----.
E---5-5----5-5-5---5-5-5-----.

Solo de la introducion:

v: vibrato
s: estira
d: desliza
p: pulsa (en vez de la pua usas el dedo de la zurda)

d--------------------------------
a--7-7-9-7--7-7-9-7--7-7-9-7-----
E--------------------------------

d--------------------------------.
a--7-7-9-7--7-7-9-7--7-7-9-7-----.
E--------------------------------.

e--------------------8-----------------------
b--8-10-10v---------8---10-----7--5---5------
g-------------7-5-----------9--7--5---7s9s7--
d-------------7-5----------------------------
a--------------------------------------------
E--------------------------------------------

e-------------7-9-9-7------------------------
b--5-5-5--7d9---------9-9------3-3-----------
g--------------------------2-5-----5-5d7p5---
d------------------------------------------7-
a--------------------------------------------
E--------------------------------------------

e--------------------------------------------
b--------------------------------------------
g--7-7-5----7-7-5---------5-5-4-4------------
d--7-7-7----7-7-7-----5-7---------7-7-5-7----
a-----------------------------------------7--
E--------------------------------------------

e--------------------------------------------
b--------------------------------------------
g-----5-5-4-4--------------5-5-4-4-----------
d-5-7---------7-7-5-7--5-7---------7-7-5-7---
a------------------------------------------7-
E--------------------------------------------

e-------------------------.
b-------------------------.
g-------------------------.
d----------5--------------.
a------5-7---7-5-3--------.
E------------------3-5-5--.

Am(se toca como en la introducion) 
Su llave arrojo
se fue, asi, sin mas
puteando por lo bajo se marcho
Un killer riff en su contestador
dejo sonando como confesion

e-------------------------------------------.
b-------------------------------------------.
g-----5-5-4-4---------------5-5-4-4---------.
d-5-7---------7-7-5-7---5-7---------7-7-5-7-.
a---------------------7---------------------.
E-------------------------------------------.

Am
Sin bulchitear a nobody, man
una corazonada fue esta vez...
lo puso en la ruta...(bie bie!)
con pases de chabona y lagrimas.

Estribillo:
riff A
e---------------------------------------------------
b----------------------------------------------10---
g----------------------------10----10-12-10-12----12
d----------10----10-12-10-12----12------------------
a-12-10-12----12------------------------------------
E---------------------------------------------------

e-------------10-.
b-10-13-10-13----.
g----------------.
d----------------.
a----------------.
E----------------.

riff B
e-13-10----10----------------------------------
b-------13----13-10-13p10----10----------------
g-------------------------12----12-10-12p10----
d-------------------------------------------12-
a----------------------------------------------
E----------------------------------------------

e-------------------------------------------------
b-------------------------------------------------
g-10----------------------------------------------
d----12-10-12p10----10----------------------------
a----------------12----12-10-9-7-7-9-7--7-7-9-7---
E-------------------------------------------------

e-------------------------------------------------.
b-------------------------------------------------.
g---------7-7-5--7-7-5----------------------------.
d---------7-7-7--7-7-7----------------------------.
a-7-7-9-7---------------7-7-9-7--7-7-9-7--7-7-9-7-.
E-------------------------------------------------.

riff A
Con un platino de American Express
riff B
trucho, pero un lindo 'camaleon'.

Am
Se despidio del negro Burgundy
pero ensueguida le bajo el pulgar
brindo tambien con el flaco Merlin
y vacaciones dio a su corazon...

riff A
No hay quien le quite a ese gallo el espolon!
riff B
Que ruede la bola! El 'zumba' se va! (bie bie!).

Solo de saxo con base en: (Em Em/G) x2 Am
e--------------------------------------------
b--------------------------------------------
g-----5-5-4-4----------------5-5-4-4---------
d-5-7---------7-7-5-7----5-7---------7-7-5-7-
a---------------------7----------------------
E--------------------------------------------

e--------------------------------------------.
b--------------------------------------------.
g-----5-5-4-4----------------5---------------.
d-5-7---------7-7-5-7----5-7---7-5-3---------.
a---------------------7----------------------.
E------------------------------------3-5-5---.

Am
Bendita sea su vieja pick-up
lo hecho de la cabina y se desvio
lo escupio y desbarranco
y al borde del abismo lo dejo

riff A
Fue la claridad que lo enceguecio
riff B
Que ruede la bola! El 'zumba' se fue!
                                     Bie-bie!

y se pierde en Am improvisando en la escala 
pentatonica de Am

Acordes:
         E A D B G E
Am       5 7 7 5 5 5 
Em       0 2 2 0 0 0 
Em/G     3 2 2 0 0 0 

Espero les guste, cualquier cosa manden un e-mail
Aguante Chaca y el Rey del Paty
Envía el tono de "Pool, averna y papusa" a tu celular/móvil
Este fichero es trabajo propio de su transcriptor y representa su interpretación personal de la canción. El material contenido en esta página es
para exclusivo uso privado, por lo que se prohibe su reproducción o retransmisión, así como su uso para fines comerciales.
© LaCuerda.net · Aviso Legal · Privacidad