Tablatura para Bajo de Patricio Rey y sus Redonditos de Ricota: Lavi-rap
Conexión · Inscripción
Letras y Acordes
Pantalla Completa
Imprimir
Versión Texto
Añadir Favorito
Otras Versiones

Mostrar Diagramas
Desfile Automático
Formato del Texto


Patricio Rey y sus Redonditos de Ricota
Lavi-rap(BAJ)
calidad:
redo0482
AUTOR: Patricio Rey y sus Redonditos de Ricota  corregir
ALBUM: Lobo suelto cordero atado (1993)
Enviado por Sebastián
Intro
G|------------------|x6
D|-7-5-7---77-7-5-7-|
A|------------------|
E|------------------|

 |------|x4 |------|x4
 |------|   |------|
 |------|   |------|
 |-1--3-|   |-3--5-|

 |-------------------------|x2
 |-----5-----5-----5-------|
 |-5-7---5-7---5-7---5-7-5-|
 |-------------------------|

Verso
G|----------------|x3
D|--------4-------|
A|-5--7-5---5-7-5-|
E|----------------|

Coro 1
G|------------|x2
D|------------|
A|-5-7------7-|
E|--------3---|

Verso
G|----------------|x3
D|--------4-------|
A|-5--7-5---5-7-5-|
E|----------------|

Coro 2
G|----------|----------|----------|-----|
D|----------|----------|----------|-----|
A|-5-7----7-|-5-7--8-5-|-3-5--8-5-|-3-5-|
E|------3---|----------|----------|-----|

 |-------------------------|x2
 |-----5-----5-----5-------|
 |-5-7---5-7---5-7---5-7-5-|
 |-------------------------|

Verso
G|----------------|x3
D|--------4-------|
A|-5--7-5---5-7-5-|
E|----------------|

Coro 1
G|------------|x2
D|------------|
A|-5-7------7-|
E|--------3---|

Verso
G|----------------|x3
D|--------4-------|
A|-5--7-5---5-7-5-|
E|----------------|

Coro 3
G|----------|----------|----------|-----|
D|----------|----------|----------|-----|
A|-5-7----7-|-5-7--8-5-|-5-7--8-5-|-3-5-|
E|------3---|----------|----------|-----|

Solo de Saxo
G|-----|x4 |-----|x4 |-----|x4
D|-----|   |-----|   |-----| 
A|-----|   |-----|   |-----|
E|-3-5-|   |-2-3-|   |-3-5-|

Puente
G|-------------------------|x2
D|-----5-----5-----5-------|
A|-5-7---5-7---5-7---5-7-5-|
E|-------------------------|

Verso
G|----------------|x3
D|--------4-------|
A|-5--7-5---5-7-5-|
E|----------------|

Coro 1
G|------------|x2
D|------------|
A|-5-7------7-|
E|--------3---|

Verso
G|----------------|x3
D|--------4-------|
A|-5--7-5---5-7-5-|
E|----------------|

Coro 2
G|----------|----------|----------|-----|
D|----------|----------|----------|-----|
A|-5-7----7-|-5-7--8-5-|-3-5--8-5-|-3-5-|
E|------3---|----------|----------|-----|

 |-------------------------|x2
 |-----5-----5-----5-------|
 |-5-7---5-7---5-7---5-7-5-|
 |-------------------------|

Puente **HASTA EL FINAL**
G|-------------------------|
D|-----5-----5-----5-------|
A|-5-7---5-7---5-7---5-7-5-|
E|-------------------------|

Escuchá la canción para saber el ritmo
Este fichero es trabajo propio de su transcriptor y representa su interpretación personal de la canción. El material contenido en esta página es
para exclusivo uso privado, por lo que se prohibe su reproducción o retransmisión, así como su uso para fines comerciales.

© LaCuerda.net · Aviso Legal · Privacidad