Tablatura para Guitarra de Patricio Rey y sus Redonditos de Ricota: Juguetes Perdidos
Conexión · Inscripción
Letras y Acordes
Pantalla Completa
Imprimir
Versión Texto
Añadir Favorito
Otras Versiones

Mostrar Diagramas
Desfile Automático
Manipular Acordes
Formato del Texto

Patricio Rey y sus Redonditos de Ricota
Juguetes Perdidos(TAB)
calidad:
redo0373
AUTOR: Beilinson-Solari
ALBUM: Luzbelito (1996)
Enviado por GUILLERMO
Intro:

GUITARRA:       MI                      LA                           MI           LA
E|----------------------------|--|------------------------------|--|----------|--|----------|--||
B|-7-7--7---7-7-7-7--7-7--7-7-|--|---5-5--5---5-5-5-5--5-5--5-5-|--|----------|--|----------|--||
G|-9-9--9---9-9-9-9--9-9--9-9-|--|---6-6--6---6-6-6-6--6-6--6-6-|x2|---MI-----|x2|-LA-------|x2||
D|-9-9--9---9-9-9-9--9-9--9-9-|x4|---7-7--7---7-7-7-7--7-7--7-7-|--|--(igual)-|--|-(igual)--|--||
A|-7-7--7---7-7-7-7--7-7--7-7-|--|---7-7--7---7-7-7-7--7-7--7-7-|--|----------|--|----------|--||
E|----------------------------|--|---5-5--5---5-5-5-5--5-5--5-5-|--|----------|--|----------|--||

BAJO:                                   LA                           MI                    LA
G|----------------------------|--|-------------------------|---|--------------------------|-----|
D|------------ƒ---------------|--|-------------------------|---|--------------------------|-LA--|
A|----------------------------|x4|-------------------------|---|-------7-7----------7-7---|-----|
E|----------------------------|--|12/(5)--5-5--0--5---5-5--|5h4|-(0)-0-----5h4-0--5-----0-|-----|

GUITARRA2:     MI            LA                 MI       LA        LA (hace un punteo)
E|-------------------|--|----------------|---|-------|----------.---------|-----|
B|-------------------|--|----------------|---|-------|----------.---------|-----|
G|-------------------|x4|------ƒ---------|x2-|---ƒ---|----ƒ-----.-----6---|-----|
D|------------ƒ------|--|----------------|---|-------|----------.-7-9-----|-----|
A|-------------------|--|----------------|---|-------|----------.---------|(7)~-|
E|-------------------|--|----------------|---|-------|----------.---------|-----|


VERSO 1:

GUITARRA: como rasgueo de la intro [MIx2- LAx2- MIx2- LAx2] 

  
BAJO:           MI                     LA                           MI                    LA
G|-------------------------|-----|-------------------------|---|--------------------------|-----|
D|-------------------------|-----|-------------------------|---|--------------------------|-LA--|
A|-------7-7----------7-7--|-----|-------------------------|---|-------7-7----------7-7---|-----|
E|-(0)-0-----5h4-0--5-----0|-0-5-|5-0-5-5--0-5--5-0-5-5----|5h4|-(0)-0-----5h4-0--5-----0-|-----|



MI                   LA
 Banderas en tu corazón.
 (Yo quiero verlas)
MI                        LA 
 Ondeando luzca el sol o no.

ESTRIBILLO 1:


BAJO:                                SOL   FA#   MI (dejar sonar)                       
G|----------------------------|--|-------------------------||
D|--------------------ƒ---ƒ---|--|-------------------------||
A|--------------2--4----------|x3|-------------------------||
E|--0--2--4--5----------------|--|--(3)---(2)---(0)~~~~~---||


Guitarra 1:
   SI        LA               SOL   FA#   MI
E|---------|---------||---||-------------------||
B|---------|---------||---||-------------------||
G|---------|-6-6-6-6-||X-3||--(3)---------(1)--||
D|-9-9---9-|-7-7-7-7-||---||--(5)---(4)---(2)--||
A|-9-9---9-|-7-7-7-7-||---||--(5)---(4)---(2)--||
E|-7-7---7-|-5-5-5-5-||---||--(3)---(2)---(0)--||


SI         LA    SI        LA
 Banderas rojas, banderas negras,
SI         LA           SOL   FA#   MI
 De lienzo blanco en tu corazón.


VERSO 2: (IGUAL)

GUITARRA: como rasgueo de la intro [MIx2- LAx2- MIx2- LAx2] 

BAJO:           MI                     LA                           MI                    LA
G|-------------------------|-----|-------------------------|---|--------------------------|-----|
D|-------------------------|-----|-------------------------|---|--------------------------|-LA--|
A|-------7-7----------7-7--|-----|-------------------------|---|-------7-7----------7-7---|-----|
E|-(0)-0-----5h4-0--5-----0|-0-5-|5-0-5-5--0-5--5-0-5-5----|5h4|-(0)-0-----5h4-0--5-----0-|-----|

GUITARRA 2: (De fondo)
   MI              LA   RIFF 1                               MI          LA (RIFF 2)             
E|----|--|-------------------------------------|-----------|----|--------------------------------
B|----|--|10-10-10---10-10-10-10---10-10--10-10|-9h10-(10)-|----|10-10--10---10-10-10-10-10--10--
G|----|x2|-------------------------------------|-----------|--ƒ-|--------------------------------
D|-ƒ--|--|-------------------------------------|-----------|----|--------------------------------
A|----|--|-------------------------------------|-----------|----|--------------------------------
E|----|--|-------------------------------------|-----------|----|--------------------------------
(Se toca con el mismo ritmo del rasgueo de intro)


-----------13-13-13---13-13-13-13---13-13--13-13------|-
10--10-10----------------------------------------(12)-|-
------------------------------------------------------|-
------------------------------------------------------|-
------------------------------------------------------|-
------------------------------------------------------|-

MI                     LA (RIFF 1)
 Perfume al filo del dolor.
 Así invisible.
MI                   LA (RIFF 2)
 Licor venéreo del amor


ESTROBILLO 2: (igual)

SI                 LA    SI        LA
 Que está en las pieles, sedas de sedas,
SI         LA           SOL   FA#   MI (DEJAR SONAR)....
 Que guarda nombres en tu corazón.


PUENTE 1:

bajo:        MI       FA#      MI       FA#      MI       FA#      MI       FA#     SI       MI
G|--------|--------|--------|--------|--------|--------|--------|--------|--------|--------|----|
D|--------|--------|--------|--------|--------|--------|--------|--------|--------|--------|----|
A|......--|--------|--------|--------|--------|--------|--------|--------|--------|--------|----|
E|--------|-0--0-0-|-2--2-2-|-0--0-0-|-2--2-2-|-0--0-0-|-2--2-2-|-0--0-0-|-2--2-2-|/7--7-7-|0-00|
   SI       MI      SI       MI         SI        MI (VERSO)
---------|-------|--------|-------|-------------|--------|
---------|-------|--------|-------|-------------|--------|
---------|-------|--------|-------|-------------|--------|
-7--7-7--|0--0-0-|-7--7-7-|0--0-0-|-7-7-7-7-7-7-|-(0)----|

Guitarra:


              MI       FA#      MI       FA#      MI       FA#      MI       FA#     SI       MI
E|--------|-0--0-0-|--------|--------|--------|--------|--------|--------|--------|--------|----|
b|--------|-0--0-0-|-2--2-2-|-0--0---|-2--2-2-|-0--0-0-|--------|-0--0-0-|-2--2-2-|--------|----|
G|----6---|-1--1-1X|-3--3-3-|-1--1-1X|-3--3-3-|-1--1-1X|-3--3-3-|-1--1-1X|-3--3-3-|-8--8-8-|9-99|
D|7-9-----|-2--2-2X|-4--4-4-|-2--2-2X|-4--4-4-|-2--2-2X|-4--4-4-|-2--2-2X|-4--4-4-|-9--9-9-|9-99|
A|-----(7)|-2--2-2X|-4--4-4-|-2--2-2X|-4--4-4-|-2--2-2X|-4--4-4-|-2--2-2X|-4--4-4-|-9--9-9-|7-77|
E|--------|-0--0-0-|-2--2-2-|-0--0-0-|-2--2-2-|-0--0-0-|-2--2-2-|-0--0-0-|-2--2-2-|/7--7-7-|----|

   SI       MI      SI       MI         SI       ENGANCHA CON VERSO
---------|-------|--------|-------|-------------|--------|
---------|-------|--------|-------|-------------|--------|
-8--8-8--|-9--9-9|-8--8-8-|9--9-9-|-------------|--------|
-9--9-9--|-9--9-9|-9--9-9-|9--9-9-|-9-9-9-9-9-9-|--------|
-9--9-9--|-7--7-7|-9--9-9-|7--7-7-|-9-9-9-9-9-9-|--------|
-7--7-7--|-------|-7--7-7-|-------|-7-7-7-7-7-7-|--------|

                                    fill 1
GUITARRA 2:                       |-------------|--------|
                                  |-------------|--------|
                                  |-------------|--------|
                                  |-9-9-11-9----|--------|
                                  |----------11-|-(7)----|
                                  |-------------|--------|

MI    FA#     MI     FA# 
 Son pájaros de la noche
MI    FA#     MI     FA# 
 Que oímos cantar y nunca vemos.

SI            MI       SI
 Cuando el granizo golpeó
       MI     SI
 La campana sonó.
       MI          SI (Fill1)           MI
 Despertó sus tristezas atronando sus nidos.



VERSO 3: (igual)


"Esperando allí nomás,
En el camino,
la bella señora está desencarnada."

ESTRIBILLO 3 (Igual)


"Cuando la noche es más oscura
Se viene el día en tu corazón."


VERSO 4:

"Estás cambiando más que yo (yira, yira, yira).
Asusta un poco verte así (yira, yira, yira)."

                                    
GUITARRA 2: 
     MI      LA (fill 2)              MI        LA                
E|------|------------------------|--------|--------||
B|------|-14---14--14-(14)-------|--------|--------||
G|--ƒ---|-14---14--14-(14)-14h13-|--------|---ƒ----||
D|------|------------------------|(14)~~--|--------||
A|------|------------------------|--------|--------||
E|------|------------------------|--------|--------||



ESTRIBILLO 4 (IGUAL)


"Cuanto más alto trepa el monito,
Así es la vida, el culo más se le ve."


PUENTE 2: (BAJO Y GUITARRA SIGUEN igual QUE EN EL 1)


MI    FA#     MI     FA# 
Yo sé que no puedo darte
MI    FA#     MI     FA# 
Algo más que un par de promesas, no:

SI            MI
Ticks de la revolución,
SI            MI
De implacable rocanrol.
SI            MI             SI               MI
Y un par de sienes ardientes que son todo el tesor


VERSO 5: (LA BASE ES IGUAL pero la guitarra 2 hace como un punteo de fondo)

MI            LA
Tan veloces son.
MI                  LA
Como borrones, así veloces.

GUITARRA 2: (de fondo)
   MI                LA                                          MI                    LA        
E|---------------|----------------------------------------|------------------------|-------------
B|---------------|-14-14-14-14----------------------------|------------------------|-------------
G|--/Deslizar----|-14-14-14-14-14--13h14-(13)-13h14-13----|13h14-(13)---13---------|-14-14-14----
D|-----Pua-------|-------------------------------------14-|----------14----14------|-14-14-14----
A|---------------|----------------------------------------|-------------------(12)-|-12-12-12----
E|---------------|----------------------------------------|------------------------|-------------
                                                                   engancha con estribillo
-------------------.---------------------------|----------------|------|
-------------------.-(13b)--13b-h12------------|-9--------------|-(12)-|
------9------11--9-.----------------13h11------|---11-9---------|------|
-9-11----11---11---.---------------------14h11-|-------11-9--11-|------|
-------------------.---------------------------|----------------|------|
-------------------.---------------------------|----------------|------|



ESTRIBILLO 5: (igual)

Hundiendo el acelerador.
Atragantados por los licores.
Soplando brasas en tu corazón.


VERSO 6: [igual]  *hay un punteo de fondo que no lo pude sacar bien todavia (si alguien lo saca)

MI                        LA
Vas a robarle el gorro al diablo así:
MI                        LA
Adorándolo, como quiere él, engañandolo.



ESTRIBILLO 6 (Igual)

Sin tus banderas, sedas de sedas,
Que guardan nombres en tu corazón.


PUENTE: (Igual que verso)


MI (dejar sonar)
" Este asunto está ahora y para siempre en tus manos, nene.
MI LA    
     Ooooh
MI
Ooohh Oooh
LA
 Por primera vez vas a robar algo más que puta guita."

ESTRIBILLO 7: (igual)

Cuando la noche es más oscura
Se viene el día en tu corazón.


PUENTE 2 (en silencio , solo toca la bateria)

Sin ese diablo que mea en todas partes
Y en nigún lado hace espuma.


FINAL.... * aca tambien hay un punteo de fondo..

GUITARRA: como rasgueo de la intro [MIx2- LAx2- MIx2- LAx2] 

y despues :


Guitarra 1: (ir disminuyendo el volumen (FADE OUT))
   SI        LA               SOL   FA#   MI
E|---------|---------||---||-------------------||
B|---------|---------||---||-------------------||
G|---------|-6-6-6-6-||X-3||--(3)---------(1)--||
D|-9-9---9-|-7-7-7-7-||---||--(5)---(4)---(2)--||
A|-9-9---9-|-7-7-7-7-||---||--(5)---(4)---(2)--||
E|-7-7---7-|-5-5-5-5-||---||--(3)---(2)---(0)--||

final..

*Fijáte bien en el rasguido.......
Envía el tono de "Juguetes Perdidos" a tu celular/móvil
Este fichero es trabajo propio de su transcriptor y representa su interpretación personal de la canción. El material contenido en esta página es
para exclusivo uso privado, por lo que se prohibe su reproducción o retransmisión, así como su uso para fines comerciales.
© LaCuerda.net · Aviso Legal · Privacidad