Tablatura para Guitarra de Patricio Rey y sus Redonditos de Ricota: El arte del buen comer
Conexión · Inscripción
Letras y Acordes
Pantalla Completa
Imprimir
Versión Texto
Añadir Favorito
Otras Versiones

Mostrar Diagramas
Desfile Automático
Manipular Acordes
Formato del Texto

Patricio Rey y sus Redonditos de Ricota
El arte del buen comer(TAB)
calidad:
redo0165
AUTOR: Solari-Bellinson
ALBUM: Lobo suelto, cordero atado (´93)
Enviado por GUILLERMO
intro:

guitarra:

E|--------------------------------|--|--------------------------------|------------------|--|(0)|
B|---------------------3-3-----3-3|--|-----------------------------3-3|------------------|--|(3)|
G|---------------------3-3-x-x-3-3|x2|-----------------------------3-3|------------------|--|(3)|
D|-------------------------x-x----|--|--------------------------------|------------------|-%|---|
A|-2-2-----2-2-----2-2------------|--|-2-2-----2-2-----2-2-----2-2----|-2-2-----2-2-----2|--|---|
E|-0-0-3-3-0-0-3-3-0-0------------|--|-0-0-3-3-0-0-3-3-0-0-3-3-0-0----|-0-0-3-3-0-0-3-3-0|--|---|
PM....................                 ..........................       ...............

BAJO:
G|--------------------------------|--|--------------------------------|------------------|--|---|
D|--------------------------------|x2|--------------------------------|------------------|--|---|
A|----------silencio--------------|--|--------------------------------|------------------|--|---|
E|--------------------------------|--|-0-0-3-3-0-0-3-3-0-0-3-3-0-0-(6)|-0-0-3-3-0-0-3-3-0|--|(1)|


VERSO 1:

guitarra:
            RIFF  A                       RIFF B
E||--------------------------------|---------------------------|
B||-----------------------------3-3|--------------------3--3-3-|
G||-----------------------------3-3|--------------------3--3-3-|
D||--------------------------------|---------------------------|
A||-2-2-----2-2-----2-2-----2-2----|-2-2-----2-2-----2-2-------|
E||-0-0-3-3-0-0-3-3-0-0-3-3-0-0----|-0-0-3-3-0-0-3-3-0-0-------|
    PM....................           ..................

BAJO:
G||--------------------------------|---------------------------|
D||--------------------------------|---------------------------|
A||-----------------------------(1)|---------------------------|
E||-0-0-3-3-0-0-3-3-0-0-3-3-0-0----|-0-0-3-3-0-0-3-3-0-0-3-3-0-|


 RIFF  A 
Pituca cree que es el mejor, 
 RIFF  A 
el mejor culo para su sillón
  FA#m                            SI    puente
y sabe bien que hoy su chance es gorda.


guitarra:
     FA#m                                 SI                  puente
E||----------------------------------|-------------------|-------------------------|
B||----------------------------------|-------------------|-------------------------|
G||----------------------------------|-------------------|-------------------------|
D||-(4)--4-4-4-4-4-4--4-(4)--4-4-4-4-|-------------------|-------------------------|
A||-(4)--4-4-4-4-4-4--4-(4)--4-4-4-4-|/-(9)--9-9-9-9-9-9-|--9-9--7-7--5-5--4-4-----|
E||-(2)--2-2-2-2-2-2--2-(2)--2-2-2-2-|/-(7)--7-7-7-7-7-7-|--7-7--5-5--3-3--2-2-----|
       PM............        .......         ...........

BAJO   FA#                                SI                     puente
G||----------------------------------|-------------------|-------------------------|
D||----------------------------------|-------------------|-------------------------|
A||----------------------------------|-------------------|-------------------------|
E||-(2)--2-2-2-2-2-2--2--2---2-2-2-2-|/--7---7-7-7-7-7-7-|--7-7--5-5--3-3--2-2-----|


RIFF A
Le ha puesto al fin su nombre al toallón, 
RIFF B
compró marfiles de la selva del Congo



PRE_ESTRIBILLO:

  FA#m     +   punteo 1       SI  + punteo 2
y en su coco siempre hay un petardo.

Guitarra:
     FA#m                                 SI                   RIFF2
E||----------------------------------|----------------------|------------|
B||----------------------------------|----------------------|-7----------|
G||----------------------------------|----------------------|---8--------|
D||-(4)--4-4-4-4-4-4--4-(4)--4-4-4-4-|----------------------|-----(9)~~--|
A||-(4)--4-4-4-4-4-4--4-(4)--4-4-4-4-|/-(9)--9-9-9-9-9-9-9--|------------|
E||-(2)--2-2-2-2-2-2--2-(2)--2-2-2-2-|/-(7)--7-7-7-7-7-7-7--|------------|
       PM............        .......         ...........

Guitarra 2:
     FA#m            punteo 1                  SI                   
E||----------------------------------|-----------------------------------|
B||------------------2---------------|-----------------------------------|
G||--------------------3-------------|-----------------------------------|
D||-(4)------------------(4)~~-------|-----------------------------------|
A||-(4)------------------------------|/-(9)--9-9-9-9-9-9-9--9-9-9--9-9-/-|
E||-(2)------------------------------|/-(7)--7-7-7-7-7-7-7--7-7-7--7-7-/-|
                                             ........................
BAJO:   FA#                                         SI                     
G||----------------------------------|-----------------------------------|
D||----------------------------------|-----------------------------------|
A||----------------------------------|-----------------------------------|
E||-(2)--2-2-2-2-2-2--2--2---2-2-2-2-|/--7---7-7-7-7-7-7--7--7-7--7-7--7-|


ESTRIBILLO 1:

GUITARRA 1:                                                                          Puente
E|-----|-----|----|------------|------------|----------|------------|-----------|---------------|
B|-----|-----|----|------------|------------|----------|------------|-----------|---------------|
G|-DO5-|-LA5-|Do5-|----SI5-----|---DO5------|----SI5---|---DO5------|----SI5----|---------------|
D|-----|-----|----|------------|------------|----------|------------|-----------|---------------|
A|-----|-----|----|------------|------------|----------|------------|-----------|9-9-7-7-5-5-4-4|
E|-----|-----|----|------------|------------|----------|------------|-----------|7-7-5-5-3-3-2-2|

GUITARRA 2:             SI          DO          SI         DO         SI            Puente
E|-----|-----|----|------------|------------|----------|------------|-----------|---------------|
B|-----|-----|----|4--4--4--4--|-1--1--1--1-|4-4--4-4--|-1--1--1--1-|4--4--4--4-|---------------|
G|-DO5-|-LA5-|Do5-|-4--4--4--4-|--2--2--2--2|-4-4--4-4-|--2--2--2--2|-4--4--4--4|---------------|
D|-----|-----|----|------------|------------|----------|------------|-----------|---------------|
A|-----|-----|----|------------|------------|----------|------------|-----------|9-9-7-7-5-5-4-4|
E|-----|-----|----|------------|------------|----------|------------|-----------|7-7-5-5-3-3-2-2|

BAJO:
    DO   LA    DO       SI          DO          SI         DO         SI            Puente
G|-----|-----|----|------------|------------|----------|------------|-----------|---------------|
D|-----|-----|----|------------|------------|----------|------------|-----------|---------------|
A|33333|-----|3333|-2-2-2-2-2-2|-3-3-3-3-3-3|-2-2-2-2-2|-3-3-3-3-3-3|-2-2-2-2-2-|---------------|
E|-----|55555|----|------------|------------|----------|------------|-----------|7-7-5-5-3-3-2-2|


DO5        LA5             
Rodeado de grandanesas 
DO5              SI5  
que se salen de la blusa
 DO5         SI5
con bestial dulzura, rush  
 DO5         SI5
y risas de "Barón V"
PUENTE
 (y así Pituca se la cree).


INTERMEDIO:

guitarra:
E||--------------------------------|------------------|--|(0)|
B||----------------------------(3)-|------------------|--|(3)|
G||----------------------------(3)-|------------------|--|(3)|
D||--------------------------------|------------------|-%|---|
A||-2-2-----2-2-----2-2-----2-2----|-2-2-----2-2-----2|--|---|
E||-0-0-3-3-0-0-3-3-0-0-3-3-0-0----|-0-0-3-3-0-0-3-3-0|--|---|
    PM.......................        ................   

BAJO:
G||--------------------------------|------------------|--|---|
D||--------------------------------|------------------|--|---|
A||--------------------------------|------------------|--|---|
E||-0-0-3-3-0-0-3-3-0-0-3-3-0-0-(6)|-0-0-3-3-0-0-3-3-0|--|(1)|



VERSO 2: (igual)

RIFF A
Aún ayer no ligaba el amor, 
RIFF B
y no enceraba nunca el bastón,
FA# +punteo 1             SI
su boca olía como un cenicero.

RIFF A
Tuvo un golpe de audacia y se dió 
RIFF B
de timbero fogoso y feroz 

PRE-ESTRIBILLO (igual)

FA# +punteo 1                  SI +punteo 2
de los que nunca muestran todo el mazo.

ESTRIBILLO:
DO5        LA5             DO5        SI5  
Y hoy come la real manzana y no deja ni pepita, 
DO5        SI5        DO5        SI5  
usa sal de melodrama, pero sin abusar
SI5                   LA (engancha con el solo de saxo)
y así Pituca se la cree


SOLO DE SAXO;:

BAJO:
        LA            SI    DO     DO#    DO           LA           DO       SI       PUENTE
G|---------------|--------------------------|----|-----------|---------|---------|-----------|--
D|---------------|--------------------------|----|-----------|---------|---------|-----------|--
A|---------------|--------------------------|----|-----------|333333333|222222222|-----------|--
E|55--555-555-555|-7-7--7-8-8--8-9-9--9-8-8-|-8/-|55555555555|---------|---------|77-55-33-22|0-
                SOL                                                    DO       SI    Puente
G|-------||---------|--|-----|---------|--|-----|----------|--|-----|-------|-------|-----------|
D|-------||---------|--|-----|---------|--|-----|----------|--|-----|-------|-------|-----------|
A|-------||---------|--|-----|---------|--|-----|----------|--|-----|-------|2222222|-----------|
E|-3-3-0-||-0-3-3-0-|--|-3-3-|-0-3-3-0-|--|-3-3-|--0-3-3-0-|--|-3-3-|/888888|-------|77-55-33-22|
          .
                                                                                        en el
       LA                SI     DO      DO#        DO                      SI           puente 
E|-------------------|----------------------------------|----|-----|-----|-------------|--------|
B|-------------------|----------------------------------|----|-----|-----|-------------|--------|
G|-------------------|----------------------------------|----|-LA5-|-Do5-|---(4)~---(4)|---(4)~~|
D|---7----7----7----7|----------------------------------|----|-----|-----|4-4----4-4---|4-4-----|
A|---7----7----7----7|-9-9--9-1010--10--11-11--11-10-10-|-10-|-----|-----|2-2----2-2---|2-2-----|
E|55-5-55-5-55-5-55-5|-7-7--7--8-8---8--9--9---9--8---8-|-8/-|-----|-----|-------------|--------|
PM..   ..   ..   ..    ...............................

sobre el [Sol] de bajo                     Sobre puente           
E|--0--0-0----0--0---0-0-|--|------|-----|-------------|
B|--3--3-3----3--3---3-3-|--|------|-----|-------------|
G|--3--3-3----3--3---3-3-|X4|-DO5--|-SI5-|-----(4)~~---|
D|-----------------------|--|------|-----|-4-4---------|
A|-----------------------|--|------|-----|-2-2---------|
E|-----------------------|--|------|-----|-------------|

y despues REPITE INTERMEDIO...

INTERMEDIO: (IGUAL)

guitarra:
E||--------------------------------|------------------|--|(0)|
B||----------------------------(3)-|------------------|--|(3)|
G||----------------------------(3)-|------------------|--|(3)|
D||--------------------------------|------------------|-%|---|
A||-2-2-----2-2-----2-2-----2-2----|-2-2-----2-2-----2|--|---|
E||-0-0-3-3-0-0-3-3-0-0-3-3-0-0----|-0-0-3-3-0-0-3-3-0|--|---|
    PM.......................        ................   


VERSO 3:

RIFF A
Pituca insiste en que es el mejor, 
RIFF B
el mejor culo para su sillón
FA# +punteo 1             SI
y sabe bien que hoy su chance es gorda.

RIFF A
Tuvo un golpe de audacia y se dió 
RIFF B
de timbero fogoso y feroz 

PRE-ESTRIBILLO (igual)


FA# +punteo 1                  SI +punteo 2
de los que nunca muestran todo el mazo.


ESTRIBILLO FINAL..

DO5        LA5             DO5        SI5  
Y hoy come la real manzana y no deja ni pepita, 
DO5        SI5        DO5        SI5  
usa sal de melodrama, pero sin abusar
SI5                   LA (FINAL)
y así Pituca se la cree


"LA" (FINAL)

E|--------------------------------------------|
B|--------------------------------------------|
G|--------------------------------------------|
D|------7--------7----------------------------|
A|-7-7--7---7-7--7----7-7--5-5--4-4--3-3--(2)-|
E|-5-5--5---5-5--5----5-5--3-3--2-2--1-1--(0)-|
  PM..      ...

BAJO:
G|--------------------------------------------|
D|--------------------------------------------|
A|--------------------------------------------|
E|5-5--5---5-5--5----5-5--3-3--2-2--1-1--(0)--|

fin
Envía el tono de "El arte del buen comer" a tu celular/móvil
Este fichero es trabajo propio de su transcriptor y representa su interpretación personal de la canción. El material contenido en esta página es
para exclusivo uso privado, por lo que se prohibe su reproducción o retransmisión, así como su uso para fines comerciales.
© LaCuerda.net · Aviso Legal · Privacidad