Tablatura para Guitarra de Las Pastillas del Abuelo: Quien Sabe
Conexión · Inscripción
Letras y Acordes
Pantalla Completa
Imprimir
Versión Texto
Añadir Favorito
Otras Versiones

Mostrar Diagramas
Desfile Automático
Manipular Acordes
Formato del Texto

Las Pastillas del Abuelo
Quien Sabe(TAB)
calidad:
pdab0693
AUTOR: Piti
ALBUM: desconocido
Enviado por Agustín
Referencias:

      RE*          %         SOL#*       DO#7          FA#*        %
e|-----------|-----------|-----------|------------|---0------|-0------0-|
B|---5---5-5-|---5---5-5-|---3---3-3-|---2---2----|---0---0--|-0---0--0-|
G|---6---6-6-|---6---6-6-|---4---4-4-|---4---4----|---2---2--|-2---2--2-|
D|---4---4-4-|---4---4-4-|---4---4-4-|---3---3----|-------2--|-----2----|
A|-5---------|-5---------|-----------|-4---4------|----------|----------|
E|-----5-----|-----5-----|-4---4-----|---------4-3|-2---2---2|---2---2--|

      SI7            MI7         FA#*       SOL#*
e|-------------| |-----------|-------0---|-------0----|
B|---0---0---0-| |------0----|-------0---|-------0----|
G|---2---2---2-| |----1---1--|-----2---2-|-----4-4----|
D|---1---1---1-| |---0-------|----2------|----4-------|
A|-2-------2---| |--2--------|---0-------|---0--------|
E|-----2-------| |-0---------|-/2--------|-/4---------|

    REmaj7       %         RE#*         %
e|----------|----------|----------|----------|
B|---7----7-|---7----7-|---7----7-|---7----7-|
G|---6----6-|---6----6-|---5----5-|---5----5-|
D|---7----7-|---7----7-|---7----7-|---7----7-|
A|-5----5---|-5--5-5---|-6----6---|-6--6-6---|
E|----------|----------|----------|----------|

 FAm7
e|-------------------------------------------|
B|---10---10---10----10---10---10---10----10-|
G|---9----9----9-----9----9----9----9-----9--|
D|---11---11---11----11---11---11---11----11-|
A|-9----9----8---8-8----7----7----6---6-6----|
E|-------------------------------------------|


Intro: RE* / % / SOL#* / DO#7 / FA#* / % / SI7 / MI7 / FA#* / SOL#*

RE*  %              SOL#*  DO#7
      Sabíamos no decirnos nada.
                         FA#*  %
      Conservando en apariencia,
             SI7
      una amistad consolidada.

      Sabíamos no exigirnos mucho.
      Hola. ¿Qué hacés?, convidame un pucho,
      que me tenés abandonada.

      Vos con tu mochila a cuestas.
      Yo con la excusa perfecta,
      para charlar de pavadas.

      Nos hizo un guiño san telmo,
      un poco de humo en el medio,
      y enloquecieron las miradas.

REmaj7       %         RE#*         %
      Quiso el destino que esa noche hiciera frío,
      FAm7
      y que el ruido de los coches me hiciera hablarte al oído.

      Y si el diablo se contenta con que dudes un instante.
      Vos y yo nuestras miserias y esta noche por delante amor.

RE* / % / SOL#* / DO#7 / FA#* / % / SI7 / MI7 / FA#* / SOL#*
                        ¿Quién sabe?

      Un umbral perdido,
      y aquel bar medio vacío,
      como único testigo.

      Bridamos por el olvido,
      y el espíritu del vino,
      se fue haciendo nuestro amigo.

      Con el corazón en llanta,
      nada mejor que tu lengua,
      abrigando mi garganta.

      Y conga, conga, conga.
      Y que siga la milonga,
      que el mozo traiga otra ronda
            MI7  FA#*  SOL#*
      y que pague Dios.

      Quiso el destino que ya no hiciera mas frío,
      y sin coches y sin ruidos sigo hablándote al oído.

      Y el diablo que se contenta con que dudes un instante.
      Vos y yo nuestras miserias y esta noche por delante amor.

 RE* / % / SOL#* / DO#7 / FA#* / % / SI7
                        ¿Quién sabe?

                        (rallentando)
    RE* / % / SOL#* / DO#7 / FA#* (arpegiado)
   Amor...                 ¿Quién sabe?...


A grandes rasgos las notas son esas, aunque yo prefiero darle cierto
carácter personal a la canción en lo que respecta a ritmo, por lo que
sugiero improvisar un poco o arpegiarlo. Ah y creo que es de Piti pero
si me equivoco por favor avisen. Saludos.
Envía el tono de "Quien Sabe" a tu celular/móvil
Este fichero es trabajo propio de su transcriptor y representa su interpretación personal de la canción. El material contenido en esta página es
para exclusivo uso privado, por lo que se prohibe su reproducción o retransmisión, así como su uso para fines comerciales.
© LaCuerda.net · Aviso Legal · Privacidad