Tablatura para Guitarra de Las Pastillas del Abuelo: Princesa
Conexión · Inscripción
Letras y Acordes
Pantalla Completa
Imprimir
Versión Texto
Añadir Favorito
Otras Versiones

Mostrar Diagramas
Desfile Automático
Manipular Acordes
Formato del Texto

Las Pastillas del Abuelo
Princesa(TAB)
calidad:
pdab0204
AUTOR: Las Pastillas del Abuelo
ALBUM: desconocido
Enviado por Nicolas
Es una buena canción y hay varias maneras de tocarla, esta es otra
puede que  haya errores pequeños,
pero es porque es muy difícil hacerla exactamente igual
espero que la disfruten, saludos!

“r” = rasgueo
“x” = rasgueo que se apaga justo después de tocar todas las cuerdas

Riff1
e|-------------------------------------------------|
B|-------------------------------------------------|
G|-------------------------------------------------|
D|----------0h2--0---------------------------------|
A|------0h2---------2-0----------------------------|
E|--0h3------------------3-------------------------|
Riff2
e|-----3-----------3---X------------3------------------|
B|--3--------3--3----3-X----------3----3-3-------------|
G|--0--------0--0----0-X-----0----0----0-0-------------|
D|--0--------2--0----2-X-0h2------0----2-0-------------|
A|--------3----------3-X-------------3-----------------|
E|--------------3------X-------3---------3-------------|
(Riff1)
(Riff2)

Cantando
(Riff1)

Riff3              r  r                       r r
e|-----3-----------3--3-x-----------3-------3---3-3-x----|
B|--3--------3--3--3--3-x---3-3---3-----3-3---3-3-3-x----|
G|--0--------0--0--0--0-x---0-0---0-----0-0---0-0-0-x----|
D|--0--------2--0--0--0-x---2-2---------------2-2-2-x----|
A|--------3--------2----x-3-----------3-------3-3---x----|
E|--------------3--3----x-------3---------3---------x----|
                         r r                   r r
e|-----------------------3-3-X-----3-------3---3-3-x------|
B|----3-3----3-3----3-3--3-3-X---3-----3-3---3-3-3-x------|
G|----0-0----0-0----0-0--0-0-X---0-----0-0---0-0-0-x------|
D|-----------------------0-0-X---------2-----2-0-0-x------|
A|--------3-----------2--2---X-------3-------3-2-2-x------|
E|-3-------------3-------3---X-3---------3-----3-3-x------|

                         r r                   r r
e|----------------3-3-X-----------3-------3---3-3-x-----|
B|----3-3----3-3--3-3-X---3-3---3-----3-3---3-3-3-x-----|
G|----0-0----0-0--0-0-X---0-0---0-----0-0---0-0-0-x-----|
D|----------------0-0-X---2-2---------------0-0-0-x-----|
A|--------3-------2---X-2-----------3-------2-2-2-x-----|
E|-3-----------3--3---X-------3---------3-----3-3-x-----|

                         r r                   r r
e|-----------------------3-3-X-------------3---3-3-x-----|
B|----3-3----3-3----3-3--3-3-X---3-3---3-3---3-3-3-x-----|
G|----0-0----0-0----0-0--0-0-X---0-0---0-0---0-0-0-x-----|
D|-----------------------0-0-X---------2-----2-0-0-x-----|
A|--------3-----------2--2---X-------3-------3-2-2-x-----|
E|-3-------------3-------3---X-3---------3-----3-3-x-----|

Riff4      r r   r  r r                   r r
e|---------0-3-x-3--3-3-x-----------------0-0-x---------2-3--|
B|----1-1--1-2-x-2--2-2-x----1-1---1--0-0-0-0-x---1-0---3-3--|
G|----2-2--2-3-x-3--3-3-x----2-2---2--0-0-0-0-x---2-0--------|
D|---------2-0-x-0--0-0-x-----------------2-2-x-------0------|
A|--0---0--0------------x-0------0--------2-2-x-0---x--------|
E|----------------------x-------------0-0-0-2-x--------------|
                                     r r    r r
e|---3-3---3-0--------0-0------------2-3----3-3-------|
B|---3-3---3-3---0-0--0---0---1-0----3-3----3-3-------|
G|---------------0-0----------2-2-----------0-0-------|
D|---------------------------------0--------0-0-------|
A|--------------------------0---------------2-2-------|
E|-3-----2-----0---0---------------------3--3-3-------|

Riff5          r r
e|--------3----3-3-x-----3-------------------------|
B|----3-3-0-3--3-3-x---3-----3-3-------------------|
G|----0-0---0--0-0-x---0-----0-0-------------------|
D|----2-0------2-2-x-------------------------------|
A|--3-------3--3-3-x-------3-----------------------|
E|------3----------x-3---------3-------------------|

(Riff1)
(Riff3)
(Riff4)

Rasgueo1
(Siguiendo el rasgueo de la canción alternando entre Sol y DOadd9)
    SOL  DOadd9
e|--3----3------m-v-|
B|--3----3------u-e-|
G|--0----0------c-c-|
D|--0----2------h-e-|
A|--2----3------a-s-|
E|--3-----------s-*-|

(Riff1)
Acá empieza a hacer cosas locas combinando entre riff y rasgueos,
 es básicamente lo mismo pero ustedes tóquenlo como les parezca mejor.
(Combina entre el rasgueo1 y el riff2)

Riff6
e|------------|
B|-----1-0-0--|
G|----0--0-0--|
D|------------|
A|------------|
E|--2----0-0--|

Rasgueo2
Em D C G D
Em D C D G

(Rasgueo1)
(Riff1)
(Rasgueo1) repite mientras canta variando en la forma de tocar
(Riff4)
(Rasgueo1)
(riff6)
(Rasgueo2)
Aca se calma y hace todo bien tranquilo
(Riff1)
(Riff2)
(Riff1)
Riff7
e|-------------------------------------------------3-3h5h3----3-|
B|------------------------------------------------3----------3--|
G|-----------------------------------------------0--------------|
D|----------0h2--0------------------------------0---------------|
A|------0h2---------0h2-0h2(muchas veces)-----------------------|
E|--0h3-----------------------------------3-0-3-------------3---|
Envía el tono de "Princesa" a tu celular/móvil
Este fichero es trabajo propio de su transcriptor y representa su interpretación personal de la canción. El material contenido en esta página es
para exclusivo uso privado, por lo que se prohibe su reproducción o retransmisión, así como su uso para fines comerciales.
© LaCuerda.net · Aviso Legal · Privacidad