Tablatura para Guitarra de Pasteles Verdes: Reloj
Conexión · Inscripción
Letras y Acordes
Pantalla Completa
Imprimir
Versión Texto
Añadir Favorito
Otras Versiones

Mostrar Diagramas
Desfile Automático
Manipular Acordes
Formato del Texto

Pasteles Verdes
Reloj(TAB)
calidad:
pver0063
AUTOR: Pasteles Verdes  corregir
ALBUM: desconocido
Enviado por Jesús
TONO ORIGINAL: Sol Mayor

TABLATURA

(a) Entrada

e[--17--12---15-----17--12---10--]


(b) Requinteo

      SOL                                         MIm
e[-----10-10-10--------------10---12-12-12-12---12-12-12-12-]
B[-------------13--12-12-13---------------------------------]
G[----------------------------------------------------------]
D[--12------------------------------------------------------]

   SIm                             LAm            RE7
e[---------------------------------------------10-10-10-10--]
B[--12-12-12--10---------10-12----13-13-13-13---------------]
G[----------------12-12-------------------------------------]

Requinto Opcional (esta parte se toca con el teclado)↓

    SOL                                         LAm
e[----------------------------------------------------------]
B[-------------------------------10-10-10-10---10-10-10-10--]
G[--12-12-12-11---9-9----11-12------------------------------]

   MIm                           LAm            RE7
e[--------------------------------------------10-10-10-10---]
B[--12-12-12-10---------10-12---13-13-13-13-----------------]
G[----------------12-12-------------------------------------]




INTRODUCCIÓN: (a) (teclado)

SOL                 MIm
Reloj no marques las horas
 SIm                 LAm   RE7
Porque voy a enloquecer...
SOL                 LAm
ella se irá para siempre
 SIm                   LAm   RE7
cuando amanezca otra vez...

 SOL                   MIm
Nomás nos queda esta noche
 SIm                 LAm   RE7
para vivir nuestro amor...
SOL                LAm
y tu tic tac me recuerda
 SIm               LAm   RE7
mi irremediable dolor...

(ESTRIBILLO)

   SOL   MIm       SIm
Reloj detén tu camino
LAm       RE7      SOL  SOL7
porque mi vida se apaga
DO             DOm
ella es la estrella
      SOL      MIm
que alumbra mi ser
LAm        RE7         SOL    RE7
yo sin su amor no soy nada...

   SOL     MIm         SIm
Detén el tiempo en tus manos
LAm         RE7     SOL     SOL7
haz de esta noche perpetua
DO        DOm      SOL      MIm
para que nunca se vaya de mí
LAm      RE7     SOL
para que nunca amanezca...

INTERMEDIO - (b)

REPETIR ESTRIBILLO

(Parte Final)

MIm
LAm       RE7   SOL      MIm
para que nunca amanezca...
LAm      RE7       SOL   MIm
para que nunca amanezca...
LAm      RE7       SOL   MIm
para que nunca amanezca...
LAm      RE7       SOL   MIm
para que nunca amanezca...
Este fichero es trabajo propio de su transcriptor y representa su interpretación personal de la canción. El material contenido en esta página es
para exclusivo uso privado, por lo que se prohibe su reproducción o retransmisión, así como su uso para fines comerciales.
© LaCuerda.net · Aviso Legal · Privacidad