Letra y Acordes de Los Pasos: Ayer tuve un sueño
Conexión · Inscripción
Letras y Acordes
Pantalla Completa
Imprimir
Versión Texto
Añadir Favorito
Otras Versiones

Mostrar Diagramas
Desfile Automático
Manipular Acordes
Formato del Texto

Los Pasos
Ayer tuve un sueño
calidad:
pass0011
AUTOR: Los Pasos
ALBUM: Ayer tuve un Sueño (1967)
Enviado por Roberto
LOS PASOS, AYER TUVE UN SUEÑO (1967).
VERSIÓN ORIGINAL DEL DISCO DE LOS PASOS EN TONO A#.
CON LOS AÑOS EN DIRECTO LA TOCABAN EN A.
J. ROBERTO CASTILLO RIVERA
AGOSTO 2011
imaginerivera@hotmail.com
----------------------------------------------------------------

INTRO:

D#/A#               A#
-----------6--------------
---------8--8-----3---------
-------8-----8----3---------
-----8--------8---3--------
---6--------------1---------
-6------------------------



  A# (2 VECES)
-------------------------
----3 1 3 4 3 1 3 -------
--3-3-3-3-3-3-3-3--------
--3----------------------
--1----------------------
-------------------------



A#                 Cm              F
Ayer tuve un sueño, fue sensacional

Cm                 Dm
los pueblos vivían en paz

A#                  Cm
nadie pensaba en engañar

             A#
pues existía la amistad

          F#          F  F7  Riff 1
nunca he soñado nada igual.


A#                  Cm                    A#
Soñé que todo era verdad y respiré felicidad

A#                  Cm                       A#
sentí calor al verme ahí y me asombré de lo que ví

A#                  Cm                       A#
soñe que había libertad y descubrí la dignidad

A#                  Cm                      D#/A#
pensé quedarme siempre allí, al despertar entristecí.



Ayer tuve un sueño, que poco duró
como era muy bueno, pasó
quisiera hacerlo realidad
y cuando me sienta soñar
procuraré no despertar.

Soñe que todo era verdad y respiré felicidad
sentí calor al verme ahí y me asombré de lo que ví
soñe que había libertad y descubrí la dignidad
pensé quedarme siempre allí, al despertar entristecí.


Riff 1
-------5----------6---------------------
-----4------4-----6--------------------
---5------5-----7----------------------
---------------------------------------
--------------------------------------
--------------------------------------
Envía el tono de "Ayer tuve un sueño" a tu celular/móvil
Este fichero es trabajo propio de su transcriptor y representa su interpretación personal de la canción. El material contenido en esta página es
para exclusivo uso privado, por lo que se prohibe su reproducción o retransmisión, así como su uso para fines comerciales.
© LaCuerda.net · Aviso Legal · Privacidad