Tablatura para Bajo de Pappo: La Adivina
Conexión · Inscripción
Letras y Acordes
Pantalla Completa
Imprimir
Versión Texto
Añadir Favorito
Otras Versiones

Mostrar Diagramas
Desfile Automático
Formato del Texto

Pappo
La Adivina(BAJ)
calidad:
papp0791
AUTOR: Pappo-medina
ALBUM: Aeroblus (1976)
Enviado por victor
Atencion: La afinacion del bajo (y de la guitarra tambien por supuesto)
esta un semitono mas grave.
Sino en la afinacion mas comun (La440)no “suena” la tab.Pueden:
1: afinar el bajo 1 semitono mas grave o
2: pasar el tema poe un editor de audio(Sony vegas)y usando el
plug in “pitch Shift” lo corren ese semitono.


G|---------------------------6-7-9-----------------6h7--7-6-----
D|------9--7--9---------9--9------------9--7--9-------------9-7-
A|--------------------------------------------------------------
E|-7---------------7---------------7----------------------------

G|---------------------------6-7-9--------------------------------
D|------9--7---9--------9--9------------9--7--9-------------------
A|----------------------------------------------------------------
E|-7---------------7---------------7---------------9h10--10-9-7-5-
       “Si acertaste,   es porque estuviste con una adivina”
G|---------------------------------------------
D|---------------------------------------------
A|-------------------7-------------------------
E|-3--------5----------0-0----3-3-3----5-5-5---

G|---------------------------6-7-9--------------------------------
D|------9--7---9--------9--9------------9--7--9-------------------
A|----------------------------------------------------------------
E|-7---------------7---------------7---------------9h10--10-9-7-5-
       “Y ella te dijo, que hoy vendriamos a buscarte”
G|---------------------------------------------
D|---------------------------------------------
A|-------------------7-------------------------
E|-3--------5----------0-0----3-3-3----5-5-5---

G|---------------------------6-7-9--------------------------------
D|------9--7---9--------9--9------------9--7--9-------------------
A|----------------------------------------------------------------
E|-7---------------7---------------7---------------9h10--10-9-7-5-
  Huuuuuuu, Huuuu, Huuuu
G|-----------------------------------------------
D|----------------------9-8--7-------------------
A|-----------------------------9-8--7------------
E|-3------3-5----5-6-7----------------10-7--5-0-2
  Huuuuuuu, Huuuu, Huuuu
G|----------------------------------------------------------------
D|----------------------------------------------------------------
A|-----------------------7----------------------------7-----------
E|-3--3-3-3--3-5--5-5-5---0-0-----------0-------------0-----------

(durante el solo de viola)
G|---------------------------6-7-9-----------------6h7--7-6-----
D|------9--7--9---------9--9------------9--7--9-------------9-7-
A|--------------------------------------------------------------
E|-7---------------7---------------7----------------------------

G|---------------------------6-7-9-----------------6h7--7-6-----
D|------9--7--9---------9--9------------9--7--9-------------9-7-
A|--------------------------------------------------------------
E|-7---------------7---------------7----------------------------

G|--------------------------------------------
D|--------------------------------------------
A|-------------------7------------------------
E|-3----3-4-5---------0-0-----3-3-3---5-5-5-5-

G|---------------------------6-7-9--------------------------------
D|------9--7---9--------9--9------------9--7--9-------------------
A|----------------------------------------------------------------
E|-7---------------7---------------7---------------9h10--10-9-7-5-

G|----------------------------------------------
D|----------------------------------------------
A|-------------------7--------------------------
E|-3--------5---------0-0-----3--3--3--5--5--5--

G|---------------------------6-7-9--------------------------------
D|------9--7---9--------9--9------------9--7--9-------------------
A|----------------------------------------------------------------
E|-7---------------7---------------7---------------9h10--10-9-7-5-

G|-----------------------------------------------
D|----------------------9-8--7-------------------
A|-----------------------------9-8--7------------
E|-3------3-5--------7----------------10-7--5-0-2

G|-------------------------------------------------------------
D|-------------------------------------------------------------
A|--------------------7----------------------------7-----------
E|-3----3-4-5---------0-------------0--------------0-----------

G|---------------------------6-7-9-----------------6h7--7-6-----
D|------9--7--9---------9--9------------9--7--9-------------9-7-
A|--------------------------------------------------------------
E|-7---------------7---------------7----------------------------

G|---------------------------6-7-9--------------------------------
D|------9--7---9--------9--9------------9--7--9-------------------
A|----------------------------------------------------------------
E|-7---------------7---------------7---------------9h10--10-9-7-5-
       “Si acertaste,   es porque estuviste con una adivina”
G|--------------------------------------------
D|--------------------------------------------
A|-------------------7------------------------
E|-3--------5---------0-0-----3-3-3---5-5-5-5-

G|---------------------------6-7-9--------------------------------
D|------9--7---9--------9--9------------9--7--9-------------------
A|----------------------------------------------------------------
E|-7---------------7---------------7---------------9h10--10-9-7-5-
       “Y ella te dijo, que hoy vendriamos a buscarte”
G|--------------------------------------------
D|--------------------------------------------
A|-------------------7------------------------
E|-3--------5---------0-0-----3-3-3---5-5-5-5-

G|---------------------------6-7-9--------------------------------
D|------9--7---9--------9--9------------9--7--9-------------------
A|----------------------------------------------------------------
E|-7---------------7---------------7---------------9h10--10-9-7-5-
  Huuuuuuu, Huuuu, Huuuu
G|---------------------------------------------------------
D|--------------------------------9-8--7-------------------
A|---------------------------------------9-8--7------------
E|-3--3-3-3--3-4-5--5-5-5--5-6-7----------------10-7--5-0-2
  Huuuuuuu, Huuuu, Huuuu
G|---------------------------------------------------------------
D|---------------------------------------------------------------
A|-------------------------7----------------7--------------------
E|-3--3-3-3--3-4-5---------0----------------0----------7---------

h: hammer on (ligado)

Vendriamos a buscarte-la adivina (Pappo-Medina)

Si acertaste,
es porque estuviste,
con una adivina;
y ella te dijo,
que hoy vendríamos,
a buscarte.

Huuuuuuu, Huuuu, Huuuu
Huuuuuuu, Huuuu, Huuuu
Envía el tono de "La Adivina" a tu celular/móvil
Este fichero es trabajo propio de su transcriptor y representa su interpretación personal de la canción. El material contenido en esta página es
para exclusivo uso privado, por lo que se prohibe su reproducción o retransmisión, así como su uso para fines comerciales.
© LaCuerda.net · Aviso Legal · Privacidad