Tablatura para Guitarra de Pappo: Desconfío de la vida
Conexión · Inscripción
Letras y Acordes
Pantalla Completa
Imprimir
Versión Texto
Añadir Favorito
Otras Versiones

Mostrar Diagramas
Desfile Automático
Manipular Acordes
Formato del Texto

Pappo
Desconfío de la vida(TAB)
calidad:
papp0041
AUTOR: Pappo's Blues
ALBUM: Pappo's Blues, Vol. 2
Enviado por sebastian
       LA      DO#7e3
No sé porque imagine
                RE7
que estabamos unidos
          MIb
me sentí mejor
           LA5-SOL#5-SOL5-FA#5
pero aqui estoy
                SI7
tan solo en la vida
     MI7      LA-MI
que mejor me voy


LA SEGUNDA ESTROFA EMPIEZA CON ESTE PUNTEO
CUANDO CANTA "UN VIEJO BLUES"

E-------
B-------
G-------
D-------
A----0-4
E-0-2---

          LA3v
Un viejo blues
          DO#7c4
me hizo recordar
                RE7c5
momentos de mi vida
           MIb
mi primer amor
           Lac5-Sol#7c5-Solc3-Fa#7c2
pero aqui estoy
                SI7c2
tan solo en la vida
    MI7       LA7-RE-FA7-MI7-LA
que mejor me voy


PUNTEO:

E----------------12------------------9-10-11-12--------------
B------10-12b-12b--12b-12-10-12----------------12b-10-10--10v
G--9-11------------------------10-10--------------------11---
D------------------------------------------------------------
A------------------------------------------------------------
E------------------------------------------------------------

--------------------------------------------12-12-11-10-9----------
-----10-12---10v----10-12b-12b--5-4-3----2v--------------10-10--10v
-9-11-----11----9-11-----------6-5-4--2-3---------------------11---
-------------------------------------------------------------------
-------------------------------------------------------------------
-------------------------------------------------------------------

-----------9-10-12-----------------------E   REFERENCIAS:
-----10-12b-------12b-10-10--10v---------B
-9-11----------------------11---11-10-9v-G   B=LIZADO
-----------------------------------------D   v=VIBRATOR
-----------------------------------------A
-----------------------------------------E

REPITE SEGUNDA ESTROFA Y TERMINA
CUALQUIER COSA Q NO ENTIENDAN O ALGO MANDENMEN UN MENSAJE A
seba-strike@hotmail.com
Y SE LO CONTESTRE CON GUSTO
GRACIAS CHAU!
Envía el tono de "Desconfío de la vida" a tu celular/móvil
Este fichero es trabajo propio de su transcriptor y representa su interpretación personal de la canción. El material contenido en esta página es
para exclusivo uso privado, por lo que se prohibe su reproducción o retransmisión, así como su uso para fines comerciales.
© LaCuerda.net · Aviso Legal · Privacidad