Tablatura para Bajo de Pappo: Desconfío de la vida
Conexión · Inscripción
Letras y Acordes
Pantalla Completa
Imprimir
Versión Texto
Añadir Favorito
Otras Versiones

Mostrar Diagramas
Desfile Automático
Formato del Texto

Pappo
Desconfío de la vida(BAJ)
calidad:
papp0042
AUTOR: Pappo's Blues
ALBUM: Pappo's Blues, Vol. 2
Enviado por victor
Esta interpretación de Desconfío que es la que mas me gusta, esta
transcripta de “Pappo sigue vivo” (1994). Es la versión mas conocida del
tema, pero que salio originariamente en “Volumen 2” (1972) tocada con
contrabajo. Escuchen el tema para guiarse bien.

G|--------------------------------------------------------------------13--
D|-----------------------2-3-4--------4------4-5--------5------5-6--------
A|---------5----5-5-----------------4-----------------5------5------------
E|------------------------------------------------------------------------

G|---------------------------------------------
D|6--------------------------2------2-7--------
A|-------3-5------5-2------2-------------------
E|-----5-------------------------------------5-

G|-------------------------------------
D|----4--4-5------6-7-----19/7--------
A|5------------------------------------
E|-------------------------------------

“No se por que…
G|------------------------------------------------------------------------
D|-----------------------2-3-4--------4----4-4-5------5-5------5-6------6-
A|---------5----5-5-----------------4-------------------------------------
E|------------------------------------------------------------------------

G|---------------------------------------------
D|6-------------------2----0-2-----2-----------
A|---------5---5-3-2---------------------------
E|------------------------------------5------5-

G|----------------------------
D|-----4---5---6-------7-7-7-7
A|5---------------------------
E|------------------5---------

“Un viejo blus…
G|--------------------------------------------------------------------4-4-
D|-----------------------2-3-4--------4------4-5--------5------5-6--6-----
A|---------5----5-5-----------------4-----------------5-------------------
E|------------------------------------------------------------------------

G|7--------------------------------------------
D|---------------------------------------------
A|---2-3-4-5---5-3-2-------2-------------------
E|---------------------------0----0-0-5------5-

G|---------------------------
D|--4---4-5----6----7--------
A|5---5----------------------
E|----------------------3-4-5

(empieza el solo de piano de Pappo)
G|--------------------------------------------------------------------4-4-
D|-----------------------2-3-4--------4------4-5--------5------5-6--6-----
A|---2-3-4-5----5-5-----------------4-----------------5-------------------
E|------------------------------------------------------------------------

G|7-------------------------------------------
D|---------------------------------------------
A|---------5---5-3-2-------2------2-2------2-3-
E|---------------------------0--------5--------

G|---------------------------
D|---4--4-5----6--6-7--------
A|5--------------------------
E|----------------------3-4-5

(empieza el solo de Botafogo)
G|--------------------------------------------------------------------4-4-
D|-----------------------2-3-4--------4------4-5--------5------5-6--6-----
A|---------5----3-5-----------------4-----------------5------5------------
E|------------5-----------------------------------------------------------

G|7--7-4---------------------------------------
D|--(9)------------------0-1-2------2----------
A|-------3-5-------2-----------------------2-2-
E|---------------5--------------------5--------

G|--------------------7------
D|--------5----6----7---5-6-7
A|5---5-3--------------------
E|---------------------------

“Un viejo blus…”
G|--------------------------------------------------------------------4-44
D|-----------------------2-3-4------2-4-----4-5---------5------5-6--------
A|---------5----5-5---------------4-------------------5-------------------
E|------------------------------------------------------------------------

G|7--9-7---------------------------------------
D|-------------------------0-2------2-7------7-
A|-------3-5---5-3-2-----2---------(7)-----5---
E|---------------------------------------------

4:27
G|------------------------------------
D|4------4-3------3-2-----2--7--7-7---
A|-----------------------------5----4-
E|------------------------------------

                              “Que mejor me voy”
G|-------------------------------------------------------------------
D|4------4-3------3-2--5-5-6-7---------------------------------------
A|-----4---------------------------------------555555555555555555555-
E|-------------------------------------------------------------------

/: Slide
(x): Nota opcional

Desconfio de la vida/Desconfio (Pappo)

No se por que, imagine
que estabamos unidos
y me senti mejor
Pero aquí estoy
tan solo en la vida
que mejor me voy

Un viejo blus, me hizo recordar
momentos de mi vida
y mi primer amor
Pero aquí estoy
tan solo en la vida
que mejor me voy

Mientras su musica se siga tocando y escuchando el carpo jamas morira,
vivira eternamente en la memoria de todos...
e-mail: zarathustra4321@hotmail.com
Envía el tono de "Desconfío de la vida" a tu celular/móvil
Este fichero es trabajo propio de su transcriptor y representa su interpretación personal de la canción. El material contenido en esta página es
para exclusivo uso privado, por lo que se prohibe su reproducción o retransmisión, así como su uso para fines comerciales.
© LaCuerda.net · Aviso Legal · Privacidad