Tablatura para Guitarra de Pappo: A donde esta la libertad
Conexión · Inscripción
Letras y Acordes
Pantalla Completa
Imprimir
Versión Texto
Añadir Favorito
Otras Versiones

Mostrar Diagramas
Desfile Automático
Manipular Acordes
Formato del Texto


Pappo
A donde esta la libertad(TAB)
calidad:
papp0013
AUTOR: Norberto Napolitano
ALBUM: Pappo Blues Volumen 1
Enviado por hugo
--A Donde Esta La Libertad Por Hugo Della Torre--

RIFF 1:
e*-------*
b*-------*
g*-------*
d*-------*
a*-0-5-7-*
e*-0-3-5-*

RIFF 2
e--------------*
b*-------------*
g*-------------*
d*-------------*
a*-5-3-5-3-5-3-*
e*-------------*

RIFF 3
e*---------*
b*---------*
g*---------*
d*---------*
a*-5-3-5-3-*
e*---------*

RIFF 4
e*---------------------*
b*---------------------*
g*---7-5---------------*
d*-------7-5-----------*
a*------------7-5------*
e*----------------8-5--*

Intr.:
e*-------*----------------------*-------------------------------*
b*-------*----------------------*-------------------------------*
g*-------*-7b9*-5-7---5-7-5-----*-------7b9-7-5---------------2-*
d*-------*----------7-------7-7-*---------------7-5-------------*
a*-0-5-7-*----------------------*-0-5-7-------------7-6/5-3-4---*
e*-0-3-5-*----------------------*-0-3-5-------------------------*

*cuando llegues a la afinación exacta(e) apaga el sonido sin
 cambiar la afinación

e*----------*------------------*------------------------*
b*----------*------------------*------------------------*
g*----------*--5---7b9>7/5-----*------------------------*
d*----------*--5-7---------7---*------------------------*
a*--0-5-7---*------------------*--0-5-7---7b9*----------*
e*--0-3-5---*------------------*--0-3-5-----------------*

*cuando llegas a la nota después de haberla estirado anda
apagándola de a poco

RIFF 1- Adónde está la libertad,

RIFF 1- no dejo nunca de pensar,

RIFF 1- quizás la tengan en algún lugar,
RIFF 1- que tendremos que alcanzar.

No creo que nunca, - RIFF 2

Sí que nunca, - RIFF 3

no creo que nunca, - RIFF 2

la hemos pasado tan mal - RIFF 4 [X4]
no es posible,
es imposible,
(Am B5 C B5)x2
aguantar. RIFF 1- El otro día me quisieron matar, RIFF 1- ametralladora pa-pa-pa-pa! , RIFF 1- yo sólo quiero escapar, RIFF 1- de toda su locura intelectual. No creo que nunca, - RIFF 2 Sí que nunca, - RIFF 3 no creo que nunca, -RIFF 2 la hemos pasado tan mal; - RIFF 4 [X4] no es posible, es imposible,
(Am B5 C B5)x4
aguantar. RIFF - 1 -SOLO DE BAJO -SOLO DE VIOLA(NO LO SAQUE COMPLETO TODAVIA POR ESO NO LO PONGO) PERO PODES IMPROVISAR EN Am y jugando con la 3era mayor y menor o también con el relativo de Am q es Cmaj (mayor) o con la pentatonica de Am, pero bue,eso ya va por vos) RIFF 1- Adónde está la libertad, RIFF 1- no dejo nunca de pensar, RIFF 1- quizás la tengan en algún lugar, RIFF 1- que tendremos que alcanzar. No creo que nunca, - RIFF 2 Sí que nunca, - RIFF 3 no creo que nunca, - RIFF 2 la hemos pasado tan mal; - RIFF 4 [X4] no es posible, es imposible,
(Am B5 C B5)x4
aguantar . bue ahi se pone a delirar a full esa parte no la saque e*--0----* b*--3----* g*--3----* d*--2----* a*--3----* e*-------* *puse el * por q no se si es ese el nombre del acorde b: estirar la cuerda >: volver a la afinación de antes /: ligado desendente bue esta mi primera transcripcion espero q les sirva www.fotolog.com/vivapappo nena te amo con toda el alma hermantia cuidalo al gino los amo VIVA PAPPO!!!!!!!!!!!!!!!!!!!! Hugo Della Torre (TdF - Rio Grande) cualquier sugerencia a vivapappo87@yahoo.com.ar saludos a todo Rio Grande!!!!!!!!!!!!!!!!!
Este fichero es trabajo propio de su transcriptor y representa su interpretación personal de la canción. El material contenido en esta página es
para exclusivo uso privado, por lo que se prohibe su reproducción o retransmisión, así como su uso para fines comerciales.

© LaCuerda.net · Aviso Legal · Privacidad