Letra y Acordes de Panteón Rococó: La rubia y el demonio
Conexión · Inscripción
Letras y Acordes
Pantalla Completa
Imprimir
Versión Texto
Añadir Favorito
Otras Versiones

Mostrar Diagramas
Desfile Automático
Manipular Acordes
Formato del Texto

Panteón Rococó
La rubia y el demonio
calidad:
proc0091
AUTOR: No se
ALBUM: desconocido
Enviado por Julio
  
dedicada a los cuates de la voca 5
transcrita por 'sori'


Intro: 
                 

e--------------------
B--------------------
G--------------------
D--------------------
A---3---2---0--------
E---------------3----



      G                     C9
El demonio ha vendido su alma
          G                          C9
por las piernas de una rubia que trabaja
      G                          C9
que baila y se desnuda en la concordia
     G                      C9
un lugar que cierra en las mañanas
          C              Am
Y el se sienta a verla bailar
          C              D/F#
toma un trago y luego se va

     G  C9 4 veces


      G                     C9
El demonio ha vendido su alma
          G                         C9
por las piernas de una rubia que trabaja
      G                          C9
que baila y se desnuda en la concordia
     G                      C9
un lugar que cierra en las mañanas
          C              Am
Y el se sienta a verla bailar
          C              D/F#  
toma un trago y luego se va
          C              Am
Y el se sienta a verla bailar
          C              D/F#    D
toma un trago y luego se va

    G  C9  4 veces

      G                     C9
El demonio le a comprado un regalo
     G                          C9
para que ella por siempre se enamore de el
      G                     C9
pero ella solo quiere su dinero
G                     C9
sexo seguro y olvidar lo que paso
      C                  Am
Y el se sienta a verla bailar
      C                  D/F#
toma un trago y luego se va
      C                  Am
Y el se sienta a verla bailar
      C                  D/F#   D
toma un trago y luego se va.

    G  C9  4 veces

    G            C9
Mira a la rubia mira al demonio
    G            C9
mira a los dos bailar
    G            C9
Mira a la rubia mira al demonio
    G            C9
mira a los dos bailar


    G            C9
Mira a la rubia mira al demonio
    G            C9
mira a los dos bailar
    G            C9
Mira a la rubia mira al demonio
    G            C9
mira a los dos bailar


           C                  Am
Y el se sienta y a ver un private
           C                  D/F#
toma un trago y dice '¡Ay wuey!'
           C                  Am
Y el se sienta y quiere agarrar
           C                  D/F#              D             G
toma un trago y lo echan del bar, lo echan del bar, lo echan del

    G  C9  4 veces 

    G  C9  4 veces      


e----------------------------------------   x2
B----------------------------------------
G----------------------------------------
D----------------------------------------
A---5-5-5--7-7-7-7--9-9-9--10-10-10-10---
E----------------------------------------


E----------------------------------------   x2
B----------------------------------------
G----------------------------------------
D--12-12-12-10--10-10-9-9-9--------------
A---------------------------10--10-10----
E----------------------------------------


    C  G9 




ahi les van los acordes por si no saben cuales son:

    G   C9    C    Am   D/F#  D

e---3----3----0----0-----0----2----
B---3----3----1----1-----3----3----
G---0----0----0----2-----2----2----
D---0----2----2----2-----0----0----
A---2----3----3----0-----0----0----
E---3----0----3----0-----2----0----
Envía el tono de "La rubia y el demonio" a tu celular/móvil
Este fichero es trabajo propio de su transcriptor y representa su interpretación personal de la canción. El material contenido en esta página es
para exclusivo uso privado, por lo que se prohibe su reproducción o retransmisión, así como su uso para fines comerciales.
© LaCuerda.net · Aviso Legal · Privacidad