Tablatura para Bajo de Panda: Promesas / decepciones
Conexión · Inscripción
Letras y Acordes
Pantalla Completa
Imprimir
Versión Texto
Añadir Favorito
Otras Versiones

Mostrar Diagramas
Desfile Automático
Formato del Texto

Panda
Promesas / decepciones(BAJ)
calidad:
pnda0445
AUTOR: Panda  corregir
ALBUM: desconocido
Enviado por ά,Lғ,я,ә,Do
Bueno ps akee les traigo la cancion de Promesas / Decepciones
Version sinfonia soledad

Intro

F#|--10-------10-------10---|  |-7-----7-----7--|
C#|--12-12-12-12-12-12-12-12|  |-8-8-8-8-8-8-8-8|
G#|-------------------------|x4|----------------|x4
Eb|-------------------------|  |----------------|

Que equibocados estabamos...

F#|--10-------10-------10---|  |-7-----7-----7--|
C#|--12-12-12-12-12-12-12-12|  |-8-8-8-8-8-8-8-8|
G#|-------------------------|x2|----------------|x2
Eb|-------------------------|  |----------------|

F#|-3333~3333~-----------|
C#|------------3333~3333~|
G#|----------------------|
EB|----------------------|

Verso

Me Prometiste y Me Mentiste...
F#|---------------------|------------------------|
C#|---------------------|------------------------|
G#|-555555555-----------|-------------3333~3333~-|
Eb|-----------666666666-|---3333~3333~-----------|

Pre-Coro

Decepcion Es Algo Que...
F#|----------------------------------------------|
C#|----------------------------------------------|
G#|-111111111-333333333-1111111111-3333333333----|
Eb|----------------------------------------------|

F#|---------------------|----------------------------|
C#|---------------------|----------------------------|
G#|-111111111-333333333-|---------------1/3333-1/3333|
Eb|---------------------|-4/6666-4/6666--------------|

Coro

Recuerda Que Siempre....                        |
F#|--------------------------------------|      |
C#|--------------------------------------|      |
G#|-5-5-5-5-3/5-5-5-5--------------------|      |
Eb|-------------------1-1-1-1-0h1-1-1-1--|      |
                                                |x2
F#|----------------------------------|          |
C#|----------------------------------|          |
G#|------------------1-1-1-1-3-333---|          |
Eb|3-3-3-3-1/3-3-3-3-----------------|          |
                                                |
Rasgeo

F#|-10--10-10--10--10-10--10-10|  |-7--7-7--7-7--7-7--7|
C#|-12--12-12--12--12-12--12-12|  |-8--8-8--8-8--8-8--8|
G#|----------------------------|x2|--------------------|x2
Eb|----------------------------|  |--------------------|

F#|-10--10-10--10--10-10--10-10|  |-7--7-7--7-7--7-7--7|
C#|-12--12-12--12--12-12--12-12|  |-8--8-8--8-8--8-8--8|
G#|----------------------------|x2|--------------------|x2
Eb|----------------------------|  |--------------------|

Verso

Agradece Y Pide....
F#|-----------------------------------------|
C#|-----------------------------------------|
G#|-555555555--------------------333333333--|
Eb|-----------666666666-33333333------------|

F#|---------------------|---------------------|
C#|---------------------|---------------------|
G#|-555555555-----------|-----------3333~3333-|
Eb|-----------666666666-|-3333~3333-----------|


Pre-Coro

Decepcion Es Algo Que...
F#|----------------------------------------------|
C#|----------------------------------------------|
G#|-111111111-333333333-1111111111-3333333333----|
Eb|----------------------------------------------|

F#|---------------------|----------------------------|
C#|---------------------|----------------------------|
G#|-111111111-333333333-|---------------1/3333-1/3333|
Eb|---------------------|-4/6666-4/6666--------------|

Coro

Recuerda Que Siempre....
F#|--------------------------------------|
C#|--------------------------------------|
G#|-5-5-5-5-3/5-5-5-5--------------------|
Eb|-------------------1-1-1-1-0h1-1-1-1--|

F#|----------------------------------|
C#|----------------------------------|
G#|------------------1-1-1-1-3-333---|
Eb|3-3-3-3-1/3-3-3-3-----------------|

F#|--------------------------------------|
C#|--------------------------------------|
G#|-5-5-5-5-3/5-5-5-5--------------------|
Eb|-------------------1-1-1-1-0h1-1-1-1--|

F#|----------------------------------|
C#|----------------------------------|
G#|------------------1-1-1-1-3-33-5~-|
Eb|3-3-3-3-1/3-3-3-3-----------------|

Rasgeo

F#|-10--10-10--10--10-10--10-10|  |-7--7-7--7-7--7-7--7|
C#|-12--12-12--12--12-12--12-12|  |-8--8-8--8-8--8-8--8|
G#|----------------------------|x2|--------------------|x2
Eb|----------------------------|  |--------------------|

F#|-10--10-10--10--10-10--10-10|  |-7--7-7--7-7--7-7--7|  |-7-|
C#|-12--12-12--12--12-12--12-12|  |-8--8-8--8-8--8-8--8|  |-8-|
G#|----------------------------|x2|--------------------|x2|---|
Eb|----------------------------|  |--------------------|  |---|

Puente

F#|-------------------------------------|
C#|-------------------------------------|
G#|-55-55-55-55-5-3-0-------------------|x4
Eb|-------------------66-66-66-66-6-3-3-|

F#|---|-----------|---|---------|
C#|---|-----------|---|---------|
G#|-5~|-2/5-5-----|---|--------3| x2
Eb|---|-------8-6-|-6~|3/6-6-6--|

No Naci Para Amar...
F#|---|-----------|---|---------|
C#|---|-----------|---|---------|
G#|-5~|-2/5-5-----|---|--------3| x2
Eb|---|-------8-6-|-6~|3/6-6-6--|

F#|---|-----------|---|---------|---|--------|
C#|---|-----------|---|---------|---|--------|
G#|-5~|-2/5-5-----|---|--------3|-5~|-2/5-5--|
Eb|---|-------8-6-|-6~|3/6-6-6--|---|-------8|

F#|----------------------------|
C#|----------------------------|
G#|----------------------------| x2
Eb|-4/6666-4/6666-6/8888-6/8888|

Coro Final

Recuerda Que Siempre....
F#|--------------------------------------|
C#|--------------------------------------|
G#|-5-5-5-5-3/5-5-5-5--------------------|
Eb|-------------------1-1-1-1-0h1-1-1-1--|

F#|----------------------------------|
C#|----------------------------------|
G#|------------------1-1-1-1-3-333---|
Eb|3-3-3-3-1/3-3-3-3-----------------|

F#|--------------------------------------|
C#|--------------------------------------|
G#|-5-5-5-5-3/5-5-5-5--------------------|
Eb|-------------------1-1-1-1-0h1-1-1-1--|

F#|----------------------------------|
C#|----------------------------------|
G#|------------------1-1-1-1-3-33-5~~|
Eb|3-3-3-3-1/3-3-3-3-----------------|

ATTE. ALFREDO LIZARRAGA ( alfre_16_4@hotmail.com
Envía el tono de "Promesas / decepciones" a tu celular/móvil
Este fichero es trabajo propio de su transcriptor y representa su interpretación personal de la canción. El material contenido en esta página es
para exclusivo uso privado, por lo que se prohibe su reproducción o retransmisión, así como su uso para fines comerciales.
© LaCuerda.net · Aviso Legal · Privacidad