Tablatura para Guitarra de Panda: Promesas / decepciones
Conexión · Inscripción
Letras y Acordes
Pantalla Completa
Imprimir
Versión Texto
Añadir Favorito
Otras Versiones

Mostrar Diagramas
Desfile Automático
Manipular Acordes
Formato del Texto

Panda
Promesas / decepciones(TAB)
calidad:
pnda0444
AUTOR: Panda  corregir
ALBUM: desconocido
Enviado por KaleX
Bueno, esta version que mando es en Afinacion Standard "E" y
esta completita!, con las dos guitarras... aki se las dejo, disfrutenla
y saludos a todos los fans chilenos de Pxndx k de apoko
somos màs!

Espero = voten por esta Tab que de verdad esta muy Buena
sacada a oido por mi...

Aviso del Intro: Para que suene = a la cancion, deberiamos saber un
pokitito a ocupar el dedo meñique (el chikitito xD!) solo
tiene k haber practica y sonara =

*Pm : Palm Mute
Intro:
e-----------------------|
B-----------------------|
G-----------------------|
D-2---2---2---2---------| Se repite hasta cambiar las notas
A-4-4---4---4-4---------|
E-----------------------|
Que equivocados estabamos al...

e-----------------------|
B-----------------------|
G-----------------------|
D-2---2---2---2---------|
A-4-4---4---4-4---------|
E-5-----------5---------|
... Pensar que la eternidad iba...
e------------------------------------------|
B------------------------------------------|
G---------------------4-4-4--4--4-4-4--4---|
D-4-4-4--4--4-4-4--4--4-4-4--4--4-4-4--4---|
A-4-4-4--4--4-4-4--4--2-2-2--2--2-2-2--2---|
E-2-2-2--2--2-2-2--2-----------------------|
Pm.....     Pm...     P....     Pm...
Ser Para siempre esta Estare...

Verso:
Guitarra 1: Arturo
Cuando la guitarra de arturo hace estas notas, abajo, la
Guitarra 2, la de Pepe toca las notas Do# y La en Pm

e----------------------------|
B------5-----5----5------5---|
G----------------------------| Me prometiste y me mentiste
D---6----6-----6------6------|
A-4----4-----4------4--------|
E----------------------------|
 Pm... Pm..  Pm..   Pm..
 Guitarra de Pepe: Nota *Do#* en Palm Mute

e----------------------------|
B------5-----5----5------5---|
G----------------------------| Te prometi nunca menti
D---6----6-----6------6------|
A-0----0-----0------0--------|
E----------------------------|
 Pm... Pm..  Pm..   Pm..
   * La Guitarra de Pepe: Nota *La* en Palm Mute

e------------------------------------------|
B------------------------------------------|
G---------------------4-4-4--4--4-4-4--4---|
D-4-4-4--4--4-4-4--4--4-4-4--4--4-4-4--4---|
A-4-4-4--4--4-4-4--4--2-2-2--2--2-2-2--2---|
E-2-2-2--2--2-2-2--2-----------------------|
Pm.....     Pm...     Pm...     Pm...
Fijate un castigo haz de merecer

***Esta parte se toca pasando muy rapidamente la uñeta por las
cuerdas moviendo arriba y abajo***

e-9-----11-------12-------14----s----16--14--11--9----|
Decepcion es algo que no hubo entre los dos

e-9-----11-------12-----------------------------------|
B--------------------9---7----------------------------|
Y al final tu lo hiciste algo real

e-9-----11-------12-------14----s----16--14--11--9------|
Tacha todas las veces que te dije algo desde este corazon...

e------------------------------------------|
B------------------------------------------|
G------------------------------------------|
D-7-7-7--7--7-7-7--7--9-9-9--9--9-9-9--9---|
A-7-7-7--7--7-7-7--7--9-9-9--9--9-9-9--9---|
E-5-5-5--5--5-5-5--5--7-7-7--7--7-7-7--7---|
Pm.....     Pm...     Pm...     Pm...
         Retiro lo Dichooooo...

Coro:
e-------------------------------------|
B-------------------------------------|
G-6-6-6-4-s-6-6-----------------------|
D-6-6-6-4-s-6-6--2-----4-------7--9---|
A-4-4-4-2-s-4-4--2-----4-------7--9---|
E----------------0-----2-------5--7---|

Luego se repite el Intro pero un poko mas rapido

Verso 2: Arturo toka punteo acompañado de la bateria y Bajo
Nota: El bajo hace las mismas notas k pepe antes... Do# y La

e----------------------------|
B------5-----5----5-----5----|
G----------------------------| Agradece y pide que todo
D---6----6-----6-----6-------|
A-4----4-----4-----4---------|
E----------------------------|

e----------------------------|
B------5-----5----5-----5----|
G----------------------------| lo que te deseo nunka jamas
D---6----6-----6------6------|
A-0----0-----0------0--------|
E----------------------------|

e---------------------------|
B------2-----2----2----2----|
G---------------------------| se haga realidad
D---4----4-----4-----4------|
A-4----4-----4-----4--------|
E---------------------------|

e---------------------------|
B------4-----4----4----4----|
G---------------------------|
D---4----4-----4-----4------|
A-2----2-----2-----2--------|
E---------------------------|

e----------------------------|
B------5-----5----5-----5----|
G----------------------------| Destrozaste mi sueño con tu orgullo
D---6----6-----6-----6-------|
A-4----4-----4-----4---------|
E----------------------------|

e----------------------------|
B------5-----5----5-----5----|
G----------------------------| Te arrepentiras
D---6----6-----6------6------|
A-0----0-----0------0--------|
E----------------------------|

Luego la parte k dice:
"Decepcion es algo k no hubo entre los dos"
son las misma notas y punteo k sale arriba

"Retiro lo Dicho..."

* Coro: 2 veces

"Muchas veces me encagaste tus promesas..."

Se toka el intro ahora version un pokito rapido y luego
viene el interclude

Interclude:
e----------------------------|
B------5-----5----5------5---|
G----------------------------|
D---6----6-----6------6------|
A-4----4-----4------4--------|
E----------------------------|

e-----------------------|
B-----------------------|
G-----------------------|
D-2---2---2---2---------|
A-4-4---4---4-4---------|
E-5-----------5---------|

Silencio
-----------------------------------------

Pepe... 2da Guitarra
e----------------------------------|
B----------------------------------|
G-6-6-6-6-s-4-2-2-2-2--4-s-6-6-6---|
D-6-6-6-6-s-4-2-2-2-2--4-s-6-6-6---|
A-4-4-4-4-s-2-0-0-0-0--2-s-4-4-4---|
E----------------------------------|

Arturo... 1ra Guitarra
e------------------------------------------------------------|
B------------------------------------------------------------|
G-9-9-9-9-s-8-6-6-6-6-6-s-8-9-9-9-9-s-11-13-13-13-14-13-11---|
D-x-x-x-x-s-x-x-x-x-x-x-s-x-x-x-x-x-s-x--x--x--x--x--x--x----|
A-7-7-7-7-s-6-4-4-4-4-4-s-6-7-7-7-7-s-9--11-11-11-12-11-9----|
E------------------------------------------------------------|

Ahora sigue la bateria con el bajo

e-------------------------------------------|
B-------------------------------------------|
G-------------------------------------------| Se repite hasta
D-------------------------------------------| llegar a la parte
A-4--4--4--2--0--0--0h2--4--4--4--0--0--0---| donde kanta Pepe
E-------------------------------------------|

Antes de llegar a la parte de pepe hay una nota k se escucha
esta es

e-12-12-12-12-12--|

 *Slide hacia abajo

e-------------------------------------------|
B-------------------------------------------|
G-------------------------------------------|
D-------------------------------------------| Se repite hasta terminar
A-4--4--4--2--0--0--0h2--4--4--4--0--0--0---|
E-------------------------------------------|
No naci para amar y aprendi que solo causa mal
no naci para amar, batalle pero te deje entrar

Ahora se toka las notas "La" y "Si" 2 veces

"Retiro lo dicho"...

Se repite el Coro y luego el final termina en "Mi"

e-----------------------|
B-----------------------|
G-----------------------|
D-2---------------------|
A-2---------------------|
E-0---------------------|

No termina muy normal k digamos pero en gral. es muy wena esta
cancion...

Espero k le haya gustado y se les haga facil
sacarla, no es dificil, esta en orden y como deberia ser
lo bueno, segun yo esta completa ...

Saludos desde Arik - Chile
saludos a mi novia y mi hija!... Sebastián Medina
Envía el tono de "Promesas / decepciones" a tu celular/móvil
Este fichero es trabajo propio de su transcriptor y representa su interpretación personal de la canción. El material contenido en esta página es
para exclusivo uso privado, por lo que se prohibe su reproducción o retransmisión, así como su uso para fines comerciales.
© LaCuerda.net · Aviso Legal · Privacidad