Letra y Acordes de Panda: Me enamoré de una lesbiana
Conexión · Inscripción
Letras y Acordes
Pantalla Completa
Imprimir
Versión Texto
Añadir Favorito
Otras Versiones

Mostrar Diagramas
Desfile Automático
Manipular Acordes
Formato del Texto

Panda
Me enamoré de una lesbiana
calidad:
pnda0711
AUTOR: Panda  corregir
ALBUM: desconocido
Enviado por mario
HOLA AMIGOS POS AKI LES DEJO ESTA ROLA DE PANDA
“ME ENAMORE DE UNA LESBIANA” VERSION ACUSTICA
ESPERO KE LES GUSTE Y POS SI TIENE ERRORES LES
PIDO KE LA CORRIJAN OK?


         F             C
me enamore de una lesbiana
            A#         Gm
 y ella rompió mi corazón
        Am          D
una de esas que no come
           C           A#           F
ella prefiere a las mujeres que a mi

F                     C
me enamore de una lesbiana
        A#          Gm
y yo mujer nunca serée
     Am          D
pues ella no me pela
                C           A#         F-E-F
aparte creo que ella se enamoro de un gey

      A#         F
y yo hago lo posible
       A#             F
para quée se fije en mi
     A#           F
pero ella no responde..ee y
      Gm             C
mala suerte ha de seguir

         F              C
yo le mande un ramo de flores
       A#        Gm
pero ella las tiro..oo
          Am              D
creo que nooo le gustan flores
           C         A#        F-E-F
ella prefiere ositos de plástico



      A#         F
y yo hago lo posible
      A#             F
para quée se fije en mi
      A#          F
pero ella no responde..ee y
      Gm             C
mala suerte ha de seguir

ESTO VA ACOMPAÑADO CON ESTOS ACORDES:  A#-C-Am-D-C-A#-F-E-F

e |--6-4-3-4-6-4-3-4-6-4-3-4-6-4-3--|
B |--------------------------------6|
G |-------------------------------- |
D |-------------------------------- |
A |-------------------------------- |
E |-------------------------------- |

e |-8-6-5-6-8-6-5-6-8-6-5-6-8-6-5-- |
B |--------------------------------8|
G |-------------------------------- |
D |-------------------------------- |
A |-------------------------------- |
E |-------------------------------- |

e|-10-8-7-8-10-8-7-8-10-8-7-8-10-8-7---- |
B|-----------------------------------10  |
G|-------------------------------------- |
D|-------------------------------------- |
A|-------------------------------------- |
E|-------------------------------------- |

e |-10-8-7-----8-6-5---6-4-3------ |
B |---------10--------8--------6-- |
G |------------------------------- |
D |------------------------------- |
A |------------------------------- |
E |------------------------------- |


    A#          F
y yo hago lo posible
      A#              F
para quée se fije en mi
     A#          F
pero ella no responde..ee y
      Gm             C    F
mala suerte ha de seguir


BUENO ESO ES TODO EL RITMO ES RAPIDO
NECESITAN ESCUCHAR LA CANCION VERSION
ACUSTICA Y UN SALUDO A MI BANDA LOS
"AY T´BOYS" KE SOMOS JASSIEL, TOÑO Y YO MAYO
Envía el tono de "Me enamoré de una lesbiana" a tu celular/móvil
Este fichero es trabajo propio de su transcriptor y representa su interpretación personal de la canción. El material contenido en esta página es
para exclusivo uso privado, por lo que se prohibe su reproducción o retransmisión, así como su uso para fines comerciales.
© LaCuerda.net · Aviso Legal · Privacidad