Letra y Acordes de Panda: Feliz Cumpleaños
Conexión · Inscripción
Letras y Acordes
Pantalla Completa
Imprimir
Versión Texto
Añadir Favorito
Otras Versiones

Mostrar Diagramas
Desfile Automático
Manipular Acordes
Formato del Texto


Panda
Feliz Cumpleaños
calidad:
pnda0982
AUTOR: Jose Madero, Jhoan Rojas, Arturo Arredondo
ALBUM: Mtv Unplugged Panda (2010)
Enviado por JORDAN, basado en jose
Feliz cumpleaños, no puedo estar ahi
En cuerpo pero en espiritu si
Mi lugar ocupado esta ahora
¡No importa, tendrás muchos cumples mas!

D <---- esto va en el medio PEPE

ARTUR
|-----------------------------------------|
|-----------------------------------------|
|--7-7-6----------------------------------|
|--------9-7------------------------------|
|-------------9-10-9-7-5------------------|
|-----------------------------------------|

Hasta ser ancianos te celebrare
No me ire de tu lado, moriremos despues
De que juntos lleguemos a la conclusión               G
QUE ya es hora de partir

Yo no te comprare solo una rosa toda la floreria
Yo te recitare aquel poema que no existe todavia
Mas no puedo desde acá
D <---- esto va en el medio PEPE

ARTUR
|-----------------------------------------|
|-----------------------------------------|
|--7-7-6----------------------------------|
|--------9-7------------------------------|
|-------------9-10-9-7-5------------------|
|-----------------------------------------
o yea)

¡Feliz cumpleaños, aún huele a ti!
Ese dia de otoño que ahora es gris
Pues no tengo manera para regresarle el color a esta obscuridad

Feliz cumpleaños, me quito el bombín
Con todo respeto te deseo a ti
Nunca nadie podrá festejarte jamás
Como yo lo haria acá

Yo no te comprare solo una rosa, toda la floreria
Yo te recitare aquel poema que no existe todavia
¡Si pásala bien! Mas no se te olvide es un dia cualquiera
Pues yo te celebrare los 365 hasta que muera
Mas no puedo  desde acá




Ohhhhh oh oh ohh oh oh oh oh oh oh!
 Ohhhhh oh oh ohh oh oh oh oh oh oh!

FA                    SOL~~ ----->...  hasta el nfinito  =D
¡Yo no puedo desde aca!
Este fichero es trabajo propio de su transcriptor y representa su interpretación personal de la canción. El material contenido en esta página es
para exclusivo uso privado, por lo que se prohibe su reproducción o retransmisión, así como su uso para fines comerciales.

© LaCuerda.net · Aviso Legal · Privacidad