Tablatura para Guitarra de los Panchos: Triunfamos
Conexión · Inscripción
Letras y Acordes
Pantalla Completa
Imprimir
Versión Texto
Añadir Favorito
Otras Versiones

Mostrar Diagramas
Desfile Automático
Manipular Acordes
Formato del Texto


los Panchos
Triunfamos(TAB)
calidad:
pnch0553
AUTOR: Rafael Cardenas
ALBUM: Triunfamos (?)
Enviado por Dalton
LES PONGO ESTE SIGNO(^) PARA QUE AL MOMENTO QUE TOQUEN ESA CUERDA,
LA JALEN CON EL MISMO DEDO QUE PONEN LA NOTA, DEJANDO QUE SUENE LA NOTA
SIGUIENTE. ESTO SE HACE RAPIDO DANDOLE UN BUEN SONIDO.TAMBIEN LO PUEDEN
HACER A MANERA DE REQUINTO... SUERTE... ;)

e---------8-12-12^10--10------7-10-10^8-7-8------7-8-8^7----7-----
B------10-----------13------9------------------9---------10-------
G----9--------------------9------------------9--------------------
D-----------------------------------------------------------------
A-----------------------------------------------------------------
E-----------------------------------------------------------------


e------4-5-7-7^5-4-5-------------------
B----5-----------------6/7-6-----------
G----------------------------8-6-5-----
D----------------------------------8---
A--------------------------------------
E--------------------------------------


Une tu voz a mi voz,
para gritar que triunfamos,
si el mundo ya se cansó,
aquí seguimos los dos,
sin renunciar ni ocultarnos.
Porqué ocultar nuestro amor,
sería tapar con un dedo,
la luz inmensa del sol,
negar la gracia de Dios,
negar que lo blanco es negro.

Amor nada nos pudo separar,
luchamos contra toda incomprensión,
del cuento ya no hay nada, que contar,
triunfamos con la fuerza del amor.
Une tu voz a mi voz,
                   LAm   (AQUI HACES UNA PAUSA CON UN SOLO RASGUEO)
para gritar que vencimos
y si es pecado el amor,
que el cielo de explicación,
porque es mandato divino.

e---------8-12-12^10--10------7-10-10^8-7-8------7-8-8^7----7-----
B------10-----------13------9------------------9---------10-------
G----9--------------------9------------------9--------------------
D-----------------------------------------------------------------
A-----------------------------------------------------------------
E-----------------------------------------------------------------


e------4-5-7-7^5-4-5-------------------
B----5-----------------6/7-6-----------
G----------------------------8-6-5-----
D----------------------------------8---
A--------------------------------------
E--------------------------------------

Amor nada nos pudo separar,
luchamos contra toda incomprensión,
del cuento ya no hay nada,nada que contar,
triunfamos con la fuerza del amor.
Une tu voz a mi voz,
                   LAm   (AQUI HACES UNA PAUSA CON UN SOLO RASGUEO)
para gritar que vencimos
y si es pecado el amor,
que el cielo de explicación,
porque es mandato divino.

e--------------------------------------
B----------------------6/7-6-----------
G----------------------------8-6-5-----
D----------------------------------8---
A--------------------------------------
E--------------------------------------

FIN..

PARA J.V.C.C-->ESTA CANCION NOS CAIA,CUANDO ESTABAMOS JUNTOS :( T.E.M
Este fichero es trabajo propio de su transcriptor y representa su interpretación personal de la canción. El material contenido en esta página es
para exclusivo uso privado, por lo que se prohibe su reproducción o retransmisión, así como su uso para fines comerciales.

© LaCuerda.net · Aviso Legal · Privacidad