Tablatura para Guitarra de los Panchos: Rayito De Luna
Conexión · Inscripción
Letras y Acordes
Pantalla Completa
Imprimir
Versión Texto
Añadir Favorito
Otras Versiones

Mostrar Diagramas
Desfile Automático
Manipular Acordes
Formato del Texto


los Panchos
Rayito De Luna(TAB)
calidad:
pnch0463
AUTOR: J.J Navarro
ALBUM: Tesoros Musicales
Enviado por Roberto
No soy perfecto mi mail al final


1.------------------8-9-8-------------------------
2.------------------------11-9-11---11-9-11-9-8---
3.------------------------------------------------
4.-----10-10-10--10-------------------------------
5.-----------------------------------------------
6.------------------------------------------------



1.------------------------------------------------------
2.-----------------8-7......>9---9-7-9-7-8---------8-9--
3.---------------9-------------------------10-11-10-----
4.-----10-9-10-9----------------------------------------
5.------------------------------------------------------
6.------------------------------------------------------



1.-------------------------------------------
2.-------------------8-9--11-9-11-9-8--------
3.--10--10-9-10-9-10------------------10-8---
4.-------------------------------------------
5.-------------------------------------------
6.-------------------------------------------


Aqui hay que mover los dedos

1.-----------------7-7--------------------------------------------------------------7-8---
2.----------7-8-10--------------7-8--10--10-10---------7-8--9-9-9-------------7-8-9-------
3.----9-8-9---------------9-8-9-------------------9-8-9-----------------9-8-9-------------
4.----------------------------------------------------------------------------------------
5.----------------------------------------------------------------------------------------
6.----------------------------------------------------------------------------------------



1.--------------------------
2.--------9-8---------------
3.--------------------------
4.----10------11-10-10------
5.--------------------------
6.--------------------------


Para un final como los grandes

 
1.-----12----
2.-----12----
3.-----12----

bASE DE LAS NOTAS CAPOTRATO EN EL PRIMER TRATE REQUINTO

Letra  

Como un rayito de luna entre la selva dormida


asi la luz de tus ojos ha iluminado mi pobre vida.

                    

Tu diste luz al sendero en mi noche sin fortuna


iluminando mi cielo como un rayito claro de luna.

                    

SI 7 MIm
Rayito de luna blanca que ilumina mi camino asi es tu amor en tu vida la verdad de mi destino. Tu distes luz...................... * Soy enemigo de la uña de carey por lo que si tocas con esta, te sera mas dificil ejecutar muchos de los requintos que tocaban por ejemplo los tres reyes, usa solo tus dedos al cabo de un tiempo te sera facil y rapido ejecutar este y otros requintos. *Sin mas se despide Robert@atame.org sir_robert@latinol.com
Este fichero es trabajo propio de su transcriptor y representa su interpretación personal de la canción. El material contenido en esta página es
para exclusivo uso privado, por lo que se prohibe su reproducción o retransmisión, así como su uso para fines comerciales.

© LaCuerda.net · Aviso Legal · Privacidad