Letra y Acordes de los Panchos: Cerezo rosa
Conexión · Inscripción
Letras y Acordes
Pantalla Completa
Imprimir
Versión Texto
Añadir Favorito
Otras Versiones

Mostrar Diagramas
Desfile Automático
Manipular Acordes
Formato del Texto


los Panchos
Cerezo rosa
calidad:
pnch0811
AUTOR: Perez prado
ALBUM: desconocido
Enviado por Omar
Muy buena canción, espero que les agrade!

Requinto

E---2-5-3-2-3-2-0-3-5-7-9-7-5-3-2-5-----------
B--3------------------------------------------
G-2-------------------------------------------
D---------------------------------------------
A---------------------------------------------
E---------------------------------------------

E---2-5-3-2-3-2-0-7-5-3-2---------------------
B--3----------------------3-------------------
G-2-------------------------------------------
D---------------------------------------------
A---------------------------------------------
E---------------------------------------------

DOdim MIm En el jardín de los cerezos
LA7 RE cortaste niña aquella flor
DOdim. MIm LA7 RE La perfumaste con tus besos y tu candor
DOdim. MIm Pero te fuiste de mi vera
LA7 RE y ya no se si volverás
DOdim MIm LA7 RE Flor de cerezo en primavera, ¿en dónde estás? (CORO)
Dod. MIm LA7 RE Aquella tardé probé de las cerezas la miel
MIm LA7 RE en la quietud del jardín de los cerezos en flor
MIm LA7 RE Tú prometiste volver a mi florido vergel
MIm LA7 RE Cerezo rosa sin tí, No quiero amor.
Dod MIm LA7 Así esperando tu regreso
RE hice un altar de nuestro amor
Dod MIm LA7 RE En el jardín de los cerezoz, en plena flor.
REm SOLm LA No, no, no podré olvidarte Ni dejar de amarte siempre, niña
REm SOLm LA No, no, ve que tu partida es herida que jamás podré curar (Requinto y se repite canción) Acordes especiales:
DOdim: E-2----------- B-3----------- G-2----------- X (No tocar) D-1----------- A-X----------- E-X----------- Bien, eso es todo!! Es una canción muy sencilla, en realidad la interpretan varios artistas, pero mi favorita, defintivamente es con Los Panchos. Si encuentran algún error favor de avisarme! Gracias!
Este fichero es trabajo propio de su transcriptor y representa su interpretación personal de la canción. El material contenido en esta página es
para exclusivo uso privado, por lo que se prohibe su reproducción o retransmisión, así como su uso para fines comerciales.
© LaCuerda.net · Aviso Legal · Privacidad