Tablatura para Guitarra de Paco de Lucía: Capricho Arabe
Conexión · Inscripción
Letras y Acordes
Pantalla Completa
Imprimir
Versión Texto
Añadir Favorito
Otras Versiones

Mostrar Diagramas
Desfile Automático
Manipular Acordes
Formato del Texto

Paco de Lucía
Capricho Arabe(TAB)
calidad:
pdlu0221
AUTOR: Franscisco Tarrega
ALBUM: desconocido
Enviado por Juan
Bueno, esta  hermosa obra
se toca con la 6ta cuerda en RE.

1-----/-15p12-10p9-12p10
2-----/-----------------
3-----/-----------------
4-7---/-----------------
5-7---/-----------------
6-7---/------------------
 *arm*

1-6p5-8p6---0-0----------
2---------8-----3--3--2--
3---------------3-----2--
4---------------5-----2--
5---------------------0--
6------------------------

1-----/-15p12-10p9-12p10
2-----/-----------------
3-----/-----------------
4-7---/-----------------
5-7---/-----------------
6-7---/------------------
 *arm*

1-6p5-8p6---0-0----------
2---------8-----3--3--2--
3---------------3-----2--
4---------------5-----2--
5---------------------0--
6------------------------

1---------------------
2---------------------
3---------------------
4------2-5-8-7-14-----
5-0--4----------------
6---------------------

1---------------------
2---------------------
3---------------------
4-12-11-12-14-12-11---
5---------------------
6---------------------

1---------------------
2---------------------
3---------------------
4-8-7-10-8-7--5-3-2-0-
5---------------------
6---------------------

1---------------------
2---------------------
3---------------------
4---------------------
5-4-1-0---------------
6--------5-3-2h8--7---

1----------------------
2---3---3----2---2-----
3---2---2----2---2-----
4-----3----2-----2-----
5--------------0-------
6-0--------------------

1----------------------
2---3---3----2---------
3---2---2----2---2-----
4-----3----2-----------
5--------------0-------
6-0--------------------

1-1h5---5--------5-6h8p5-
2-----6---6----8---------
3------------------------
4-----7---7--------------
5-------8----7------0----
6--0---------------------

1-5-6-8--5----5------5-6h8p5-
2----------6----6---8--------
3----------------------------
4----------7----7------------
5-------------8----7------0--
6--------0-------------------


1-5-6-8p5----5--------------
2----------6----6-----------
3---------------------------
4----------7----7-----------
5-------------8-------------
6------0--------------------


  CVII------------ CX------------
1--------7-9-10-12-13-13p12-10---
2---9-10--------------10-------10
3---------------------10-------10
4--------------------------------
5-7--------------------------0---
6--------7----------0------------

1-----9h12p9---------------------
2------------11-8----------------
3-----------------9--------------
4-------------------11-----------
5-7-----------------------------
6--------------------------------
 *arm*

1-------------------------------
2-10---10------8p6-5h6-8p5------
3---------7---------------------
4----7----7---------------------
5-------8----7------0-----------
6--0-----------------------------

1------------------5-8h11--------
2-6---7----------7---------------
3---7---5------5-----------------
4---7---7----7-------------------
5----------5---------------------
6-0------------------------------

1-10-8h10p8--6-5-3--6p5-10p9-12p10
2------------8-3-5----------------
3------0--------------------------
4---------------------------------
5--------------------0------------
6---------------------------------

1-13p12-15p12-10p9-12p10-6p5-8p6-
2--------------------------------
3--------------------------------
4--------------------------------
5---------0----------------------
6--------------------------------

1---0-----------/
2-8---3----2----/
3-------3----2--/
4---------------/
5----------0----/
6---------------/
                           CIII----
1-----------------/-----------------
2---3---3---4---2-/---3---3---5---5-
3-----------0---2-/-----------3---3-
4---3---3-------2-/---3---3-------5-
5-----1-------0---/-----1-------3---
6-0-------1-------/-0-------3-------

 CIII-----------------------
1---5---5---------------------------
2---6---6----3-5h6p5---3-3h5-3-1---1
3-5---5--------------5---------2---2
4----------5------------------------
5-----3------------3-------------3--
6-3--------------------------3------

 CV----------------------...
1-----5-6h8p6-5---8-----------------
2---8-----------8-----6-------------
3---------5---------5---5-----------
4-5-----------------7---7-----------
5-----------------0-----------------
6-----------------------------------

CV---------------
1-----------------3h5p3-----------
2-----5-6h8p6-5-----------1-------
3---7-----------7-------5---3-----
4---------------------------2-----
5-5---------------3---------------
6---------5-----------------------

1-------0---------/
2-----3---3p1-----/
3---3---------3---/
4-----------------/
5-3-------------3-/
6-----------------/

CIII-----------------------
1---5---5---------------------------
2---6---6----3-5h6p5---3-3h5-3-1---1
3-5---5--------------5---------2---2
4----------5------------------------
5-----3------------3-------------3--
6-3--------------------------3------

CV--------------
1---------------6-5h6h8p5------------
2---------5-6-8-----------5---5------
3-----5h7-----------------6---6------
4---8-----5--------------------------
5--------------------0------7*-------
6-5----------------------------------
                           *arm*

1---10p6---0---------------0----9-12-
2--------8---3-----------2---10------
3--------------3p0-----2-------------
4--------------------2---------------
5-0----------------0-----------------
6------------------------------------

1---6p3-----------------0-------------
2-------5p3-----------2----10-10-10-10
3-----------3p0-----2-----------------
4-----------------2-------------------
5-0-------------0---------------------
6-------------------------------------


1----------------------------------------
2-----------------------------0-1-2-3-4-5
3---------------------0-1-2-3------------
4-----------0-1-2-3-4--------------------
5-0-1-2-3-4------------------------------
6----------------------------------------

                 CVII-----------...
1-------------------7-9-10-9h10p9--------
2-7-8-9-10---10--------------------------
3----------7----7------------------------
4----------7----7-------------7----------
5-------------8---7----------------------
6--------0-------------------------------

  CVII---------------------------------
1----7-9-7h9p7---------------------------
2-10-----------10----------7-8h10p8-7----
3---------------7---7----9------------9--
4-------------------7--7-----------------
5-----------------9------------0---------
6----------0-----------------------------

             CII------------
1--------------------------------------
2-8h10------------2-3h5p3-2---3h5------
3--------7------4-----------4-------2--
4------7---7----------2-----------2---2
5--------9--------------------0-----4--
6-0-----------2------------------------

1--------9p7---0-/
2---9h10-----8---/
3----------------/
4----------------/
5-0--------------/
6----------------/

               CVII-----------...
1----------------7-9-10-9h10p9--------
2----10---10--------------------------
3-------7----7------------------------
4-------7----7-------------7----------
5----------8----7---------------------
6-----0-------------------------------

CVII-----------------
1----7-9-7h9p7------------------------8-
2-10-----------10----------------7-10---
3---------------7---7----------9--------
4-------------------7------7h10---------
5-----------------9----6h9--------------
6----------0----------------------------

 CVII--
1-9---9------14p12-10------0----------
2---------------------12-9---3-3p2----
3---9---------------------------------
4-----7-------------------------------
5-7------7*--------------------0------
6-------------------------------------
        *arm*

1--------------------------------------------
2-12-12p10-10p8-8p7-7------------------------
3---------------------9-9p7-7----------------
4-----------------------------11-11p9-9p8-8p7
5--------------------------------------------
6--------------------------------------------

              CVII------------...
1----------------7-9-10-9h10p9--------
2-10-10---10--------------------------
3-------7----7------------------------
4-------7----7-------------7----------
5----------8----7---------------------
6-----0-------------------------------

CVII-----------------
1----7-9-7h9p7-----------------2-5-12-
2-10-----------10------------3--------
3---------------7---7------2----------
4-------------------7--0h4------------
5-----------------9-------------------
6----------0--------------------------

                    CII----
1-10-10h12p10-0---0---------------------
2-------------0---0------2-3h10-8-8h10p8
3-----0----------------4----------------
4-------------------------------7-7-----
5---------------------------------0-----
6---------------5----2------------------

     CV     CII--
1--------/-----------0-----/----------------
2-7---5- /-3-----3---0---2-/---3---3---4---2
3-----6--/---2-----------0-/-----------0---2
4-7---5--/---4---4---------/---3---3-------2
5---0----/-----2-------0---/-----1-------0--
6--------/-0-------5-------/-0-------1------

1-----------------/
2---3---3---4-----/
3-----------0---2-/
4---3---3---------/
5-----1-------0---/
6-0-------1-------/

1-1h5---5--------5-6h8p5-
2-----6---6----8---------
3------------------------
4-----7---7--------------
5-------8----7------0----
6--0---------------------

1-5-6-8--5----5------5-6h8p5-
2----------6----6---8--------
3----------------------------
4----------7----7------------
5-------------8----7------0--
6--------0-------------------


1-5-6-8p5----5--------------
2----------6----6-----------
3---------------------------
4----------7----7-----------
5-------------8-------------
6------0--------------------


  CVII------------ CX------------
1--------7-9-10-12-13-13p12-10---
2---9-10--------------10-------10
3---------------------10-------10
4--------------------------------
5-7--------------------------0---
6--------7----------0------------

1-----9h12p9---------------------
2------------11-8----------------
3-----------------9--------------
4-------------------11-----------
5-7-----------------------------
6--------------------------------
 *arm*

1-------------------------------
2-10---10------8p6-5h6-8p5------
3---------7---------------------
4----7----7---------------------
5-------8----7------0-----------
6--0-----------------------------

1------------------5-8h11--------
2-6---7----------7---------------
3---7---5------5-----------------
4---7---7----7-------------------
5----------5---------------------
6-0------------------------------

1-10-8h10p8--6-5-3--6p5-10p9-12p10
2------------8-3-5----------------
3------0--------------------------
4---------------------------------
5--------------------0------------
6---------------------------------

1-13p12-15p12-10p9-12p10-6p5-8p6-
2--------------------------------
3--------------------------------
4--------------------------------
5---------0----------------------
6--------------------------------

1---0-----------/
2-8---3----2----/
3-------3----2--/
4---------------/
5----------0----/
6---------------/

1----------------/-----------------
2---3---3---4---2/---3---3---4---2-
3-----------0---2/-----------0---2-
4---3---3-------2/---3---3-------2-
5-----1-------0--/-----1-------0---
6-0-------1------/-0-------1-------

         CX
1---------10------//
2---------10------//
3---------10------//
4-12*-----0-------//
5-12*-------------//
6-12*-------------//
  *arm*

Recomiendo que antes de ejecutar esta
obra , se la escuche por Paco de Lucia,
para entender mas a fondo los tiempos
y silencios.
Cualquier duda o comentario, a mi casilla.
Espero que les sirva.
Desde Bragado, con cariño.
Envía el tono de "Capricho Arabe" a tu celular/móvil
Este fichero es trabajo propio de su transcriptor y representa su interpretación personal de la canción. El material contenido en esta página es
para exclusivo uso privado, por lo que se prohibe su reproducción o retransmisión, así como su uso para fines comerciales.
© LaCuerda.net · Aviso Legal · Privacidad