Tablatura para Guitarra de Pablo Sbaraglia: Nada! (zippo rock)
Conexión · Inscripción
Letras y Acordes
Pantalla Completa
Imprimir
Versión Texto
Añadir Favorito
Otras Versiones

Mostrar Diagramas
Desfile Automático
Manipular Acordes
Formato del Texto

Pablo Sbaraglia
Nada! (zippo rock)(TAB)
calidad:
psbr0011
AUTOR: Pablo Sbaraglia, Indio Solari
ALBUM: El club de la Moneda de Plata (2008)
Enviado por Cabrito
Pablo Sbaraglia con El Indio Solari

Nada! (Zippo Rock):

Base: ( La x4, Re x2, La x2, Mi, Re, La x2 )

               LA
e-|--------------------------|
B-|--------------------------|
G-|--------------------------|  ( x4 )
D-|-----------7-----5-567----|
A-|--------------567-7-------|
E-|------5-5-----------------|

               RE
e-|--------------------------|
B-|--------------------------|
G-|-----------7-----5-567----|  ( x2 )
D-|--------------567-7-------|
A-|------5-5-----------------|
E-|--------------------------|

               LA
e-|--------------------------|
B-|--------------------------|
G-|--------------------------|  ( x2 )
D-|-----------7-----5-567----|
A-|--------------567-7-------|
E-|------5-5-----------------|

               MI
e-|--------------------------|
B-|--------------------------|
G-|-----------9-----7-9-7----|  ( x1 )
D-|--------------789-9-------|
A-|------7-7-----------------|
E-|--------------------------|

               RE
e-|--------------------------|
B-|--------------------------|
G-|-----------7-----5-7-5----|  ( x1 )
D-|--------------567-7-------|
A-|------5-5-----------------|
E-|--------------------------|

               LA
e-|--------------------------|
B-|--------------------------|
G-|--------------------------|  ( x2 )
D-|-----------7-----5-567----|
A-|--------------567-7-------|
E-|------5-5-----------------|

 A
Oye! es que esto no se me pasa...
 D                                A
Oye! es que esto no se me pasa...
 E       D                 A
Hoy creo que me siento un poco peor

 A
Si este problema no tiene solución
¿porque me sigue ardiendo tanto el corazón?
Ya no recuerdo que el mundo no es sólo este agujero
       E           D             A
Y esto no se pa pa pa pa pa pasa mama!

 A
Es tu forma de caminar...
 D                               A
Te digo: es tu forma de caminar!
 E      D                 A
Me calma    el sólo verte llegar

 A
Y voy pasando esta noche minuto a minuto
con el Zippo encendido y el cinco en la lengua
Cuando suene tu alarma es que llegó la mañana
       E             D                A
y aquí no habrá pa pa pa pa pa pasado nada!

 A
Oye! es que esto no se me pasa...
 D                               A
Oye! es que esto no se me pasa...
 E         D              A
Hoy creo que  me siento un poco peor

 A
Y ahora no estoy más tranquilo y porque tendría que estar
tengo otras nueve canciones para molestar
Voy a cerrar la persiana y ya te cuento mañana
          E          D          A
por ahora esto no se pa pa pasa chau!


((es el primer tema con el que colaboro a demás soy medio principiante
 a si que si quieren arreglarlo no hay problema xD … Rock Unido!!!!))
Envía el tono de "Nada! (zippo rock)" a tu celular/móvil
Este fichero es trabajo propio de su transcriptor y representa su interpretación personal de la canción. El material contenido en esta página es
para exclusivo uso privado, por lo que se prohibe su reproducción o retransmisión, así como su uso para fines comerciales.
© LaCuerda.net · Aviso Legal · Privacidad