Letra y Acordes de Noelia: Tú
Conexión · Inscripción
Letras y Acordes
Pantalla Completa
Imprimir
Versión Texto
Añadir Favorito
Otras Versiones

Mostrar Diagramas
Desfile Automático
Manipular Acordes
Formato del Texto


Noelia
calidad:
noel0012
AUTOR: Noelia  corregir
ALBUM: desconocido
Enviado por d
Intro:

e|-7-4-5-7--11-11-9--9--7-9--7-5-2-4-5-9--9--7-7-5-7-5-4-
B|-9-5-7-9--12-12-10-10-9-10-9-7-4-5-7-10-10-9-9-7-9-7-5-
G|-------------------------------------------------------
D|-------------------------------------------------------
A|-------------------------------------------------------
E|-------------------------------------------------------

e|-0-2-4-7-7-9--5-4-5---7-9--5-4-2-4-
B|-2-4-5-9-9-10-7-5-7---9-10-7-5-4-5-
G|--------------------4--------------
D|-----------------------------------
A|-----------------------------------
E|-----------------------------------

G#7 C#m En mi mente estas como una adiccion
F#m Que se siente dulce, tierna y natural
B7 Pasas el umbral de mi intimidad
E Llegas hasta el fondo de cada rincon
A Me tienes aqui como quieres tu
G#7 Vienes y desplazas a mi soledad
C#m Me vas atrapando
C#m En mi estas palpitando a mil
F#m Y verte a mi lado es mi necesidad
B7 El dejaste ir o decir adios
E Es morir en vida es negarme a mi
A Que mi libertad se termina en ti
G#7 C#m Y sentirte cerca de nuevo es saber que te estoy amando Coro:
E Tu y de nuevo tu
A Dejas que naufrague justamente en ti
B Tu mi locura tu
E Me atas a tu cuerpo no me dejas ir
C#m F#m Tu adherido a ti entre cada atomo
B Entre cada celula vives tu
E A Tu todo lo llenas tu que vienes y pasas como una huracan
B E Tu total y pleno tu te has vuelto mi fuerza y mi talisman
C#m F#m Tu silente y sutil entre cada atomo
B7 E G#7 Entre cada celula vives tu
C#m Vas creciendo en mi es inevitable
F#m Caigo en tu mirada soy tan vulnerable
B7 Desprendes la luz de cada palabra
E Te has vuelto la espada tras cada batalla
A Descubri el amor al llegar a ti
G#7 C#m Y caigo de nuevo en esta confusion que te estoy amando CORO
C# F#m Y es que has hecho de mi
B Lo que tu quieres lo que sientes lo que has deseado
G#7 A tu sexo a tus ganas
A A tu entorno a tus afectos tu me has moldeado
B Y en toda vives tu
Este fichero es trabajo propio de su transcriptor y representa su interpretación personal de la canción. El material contenido en esta página es
para exclusivo uso privado, por lo que se prohibe su reproducción o retransmisión, así como su uso para fines comerciales.
© LaCuerda.net · Aviso Legal · Privacidad