Tablatura para Guitarra de Noel Schajris: No veo la hora
Conexión · Inscripción
Letras y Acordes
Pantalla Completa
Imprimir
Versión Texto
Añadir Favorito
Otras Versiones

Mostrar Diagramas
Desfile Automático
Manipular Acordes
Formato del Texto

Noel Schajris
No veo la hora(TAB)
calidad:
nsch0143
AUTOR: Noel Schajris  corregir
ALBUM: Uno no es uno (2009)
Enviado por El
hola, que tal, esta mi primera transcripción, es de Noel.
Los acordes son lo más cercanos, ya que en el teclado
entran sextas y novenas, etc. Pero espero que les guste.
Algunos acordes los saqué y otros me basé en otras colaboraciones.
Este es el intro en el piano. NO LO HE INTENTADO CON DOS GUITARRAS
PERO EN TEORÍA SE ESCUCHARÍA BIEN.
ALGO ASÍ:

Intro:
              A                     D
e||----9-12------------------9-12------------|
B||-12------10-9-10-------12------10-9-10----|
G||-----------------9---------------------11-|
D||------------------------------------------|
A||------------------------------------------|
E||------------------------------------------|

              A                     D
e||----9-12------------------9-12------------|
B||-12------10-9-10-------12------10-9-10----|
G||-----------------9------------------------|
D||------------------------------------------|
A||------------------------------------------|
E||------------------------------------------|

    Dmaj9
e|--9------------|
B|--10-----------|
G|--9------------|
D|--0------------|
A|---------------|
E|---------------|


    A                                D
No veo la hora de colgar mi saco en tu ropero
    E                       A             E/G#
no veo la hora de cantarte hasta dormir
   F#m                          C#m7
no veo la hora de arrullar todos tus sueños
        Bm7              Esus4-E
y me desvelo pensando en ti.

    A                            D
No veo la hora de contarte algún secreto
    E                         A             E/G#
no veo la hora de explicarte quién soy yo
   F#m                          C#m7
y recuperar los momentos que perdimos
      Bm7     D      Esus4-E   C#7
en el camino   solos tú y yo.

Pre-coro
F#m                        C#/F
   Tengo tanto para darte un beso en libertad
C#m5b/E                          Bm7                     Bm-A
   un abrazo por la noche un cuento que te haga soñar
D                             A
   si la vida nos juntó a los dos para crecer
         Bm7-A/C#      D    B7/D#-Esus4-E
amor contigo     yo quiero aprender.

Coro
    D        A
Por ti puedo ser
                F#m
una tarde en tu piel
                Esus4-E
una vida en tus ojos de miel,
    D         C#m7
por ti puedo hacer
       D
amor y fe
          G           E
no veo la hora de volverte a ver


Inter:
              A                     D
e||----9-12------------------9-12------------|
B||-12------10-9-10-------12------10-9-10----|
G||-----------------9---------------------11-|
D||------------------------------------------|
A||------------------------------------------|
E||------------------------------------------|

              A                     D
e||----9-12------------------9-12------------|
B||-12------10-9-10-------12------10-9-10----|
G||-----------------9------------------------|
D||------------------------------------------|
A||------------------------------------------|
E||------------------------------------------|

    Dmaj9
e|--9------------|
B|--10-----------|
G|--9------------|
D|--0------------|
A|---------------|
E|---------------|

    A                         D
No veo la hora de correr bajo la lluvia
    E                       A             E/G#
no veo la hora de pintar tu desnudez
   F#m                          C#m7
sentarme a leerte un verso que nos una
         Bm7    D       Esus4-E           C#7
y que descubra   otra razón para creer.

Pre-coro
F#m                        C#/F
   Tengo tanto para darte un beso en libertad
C#m5b/E                          Bm7                     Bm-A
   un abrazo por la noche un cuento que te haga soñar
D                             A
   si la vida nos juntó a los dos para crecer
         Bm7-A/C#      D    B7/D#-Esus4-E
amor contigo     yo quiero aprender.

Coro
    D        A
Por ti puedo ser
                F#m
una tarde en tu piel
                Esus4-E
una vida en tus ojos de miel,
    D         C#m7
por ti puedo hacer
       D
amor y fe
          G           E
no veo la hora de volver
          F#m         B7
no veo la hora de volver
          Bm7  C#m7  D
no veo la hora de volverte a ver


Final:
              A                     D
e||----9-12------------------9-12------------|
B||-12------10-9-10-------12------10-9-10----|
G||-----------------9---------------------11-|
D||------------------------------------------|
A||------------------------------------------|
E||------------------------------------------|

              A                     D
e||----9-12------------------9-12------------|
B||-12------10-9-10-------12------10-9-10----|
G||-----------------9------------------------|
D||------------------------------------------|
A||------------------------------------------|
E||------------------------------------------|

    A
e|--9------------|
B|--10-----------|
G|--9------------|
D|---------------|
A|--0------------|
E|---------------|


Así termina. Espero que les guste. Son los acordes más cercanos.
Envía el tono de "No veo la hora" a tu celular/móvil
Este fichero es trabajo propio de su transcriptor y representa su interpretación personal de la canción. El material contenido en esta página es
para exclusivo uso privado, por lo que se prohibe su reproducción o retransmisión, así como su uso para fines comerciales.
© LaCuerda.net · Aviso Legal · Privacidad