Tablatura para Guitarra de No Te Va Gustar: Con el viento
Conexión · Inscripción
Letras y Acordes
Pantalla Completa
Imprimir
Versión Texto
Añadir Favorito
Otras Versiones

Mostrar Diagramas
Desfile Automático
Manipular Acordes
Formato del Texto


No Te Va Gustar
Con el viento(TAB)
calidad:
ntvg0811
AUTOR: Ntvg
ALBUM: Por lo Menos hoy (2010)
Enviado por Leonardo
Cuarto Track del disco "Por lo menos Hoy"

INTRO:

E)|-----------------------------------| |
B)|-----------------------------------| |
G)|-----------------------------------| |
D)|--5-5--8-8-8--9-9-9--10-10-10-10---| X3 |
A)|--5-5--8-8-8--9-9-9--10-10-10-10---| |
E)|--3-3--6-6-6--7-7-7--8--8--8--8----| | | X2
E)|-----------------------------------| |
B)|-----------------------------------| |
G)|-----------------------------------| |
D)|--5-5--3-3-3--3-3-3--2-2-----------| |
A)|--5-5--3-3-3--3-3-3--2-2-----------| |
E)|--3-3--1-1-1--1-1-1--0-0-----------| | 1er Verso: (Intro con Palm Muting) Disfrutar de la tristeza más que no se haga costumbre seguirá siendo camino sin envidiar al de al lado Sin solo esperar la dicha, esa que aveces confunde ese que se cree mas firme puede estar equivocado. INTRO:
E)|-----------------------------------| |
B)|-----------------------------------| |
G)|-----------------------------------| |
D)|--5-5--8-8-8--9-9-9--10-10-10-10---| X3 |
A)|--5-5--8-8-8--9-9-9--10-10-10-10---| |
E)|--3-3--6-6-6--7-7-7--8--8--8--8----| | | X1
E)|-----------------------------------| |
B)|-----------------------------------| |
G)|-----------------------------------| |
D)|--5-5--3-3-3--3-3-3--2-2-----------| |
A)|--5-5--3-3-3--3-3-3--2-2-----------| |
E)|--3-3--1-1-1--1-1-1--0-0-----------| | 2do Verso: (Intro con Palm Muting) Ya no me sorprende nada ya no hay nada que me asombre hay una verdad a oscuras como duele este momento Si me dedico a soñar solo me sale tu nombre quisiera contarte ahora lo vacío que me siento. Interlude: N/A
Cm Se que un gesto cura todo
Gm lo que no lo cura el tiempo
D# pero si la magia muere
D sola se va con el viento.
E)|-----------------------------------| |
B)|-----------------------------------| |
G)|-----------------------------------| |
D)|--5-5--8-8-8--9-9-9--10-10-10-10---| X3 |
A)|--5-5--8-8-8--9-9-9--10-10-10-10---| |
E)|--3-3--6-6-6--7-7-7--8--8--8--8----| | | X1
E)|-----------------------------------| |
B)|-----------------------------------| |
G)|-----------------------------------| |
D)|--5-5--3-3-3--3-3-3--2-2-----------| |
A)|--5-5--3-3-3--3-3-3--2-2-----------| |
E)|--3-3--1-1-1--1-1-1--0-0-----------| |
Este fichero es trabajo propio de su transcriptor y representa su interpretación personal de la canción. El material contenido en esta página es
para exclusivo uso privado, por lo que se prohibe su reproducción o retransmisión, así como su uso para fines comerciales.
© LaCuerda.net · Aviso Legal · Privacidad