Letra y Acordes de No Te Va Gustar: A las 9
Conexión · Inscripción
Letras y Acordes
Pantalla Completa
Imprimir
Versión Texto
Añadir Favorito
Otras Versiones

Mostrar Diagramas
Desfile Automático
Manipular Acordes
Formato del Texto

No Te Va Gustar
A las 9
calidad:
ntvg0894
AUTOR: Emiliano Brancciari
ALBUM: el Calor del Pleno Invierno (2012)
Enviado por Luchoo27, basado en Omar
Intro: D Am Em D

Tambien pueden tocar:

D(e -0-2-3-2-0) Am(e -0-2-3-2-0) Em(e -0-2-3-2-0) D(e -0-2-3-2-0)

D                           Am
¿Cómo que tenés que irte? si recién te vi llegar
Em                                D
Solo me das en un rato lo que tenés para dar
D                          Am
Espero sea una broma, aunque en realidad lo entiendo
Em                              D
No querés sinceridad, ni que te siga mintiendo.


Estribillo:
Em       G         D         C            Em       D
Sé que te vas a las nueve, sé que me muero a las diez


D                          Am
Sabes  estoy de tu lado, no me pidas mas que eso,
Em                                D
Cuando la noche se apague vas a darme un solo beso
D                          Am
Tengo la mente cansada  y mi piel se va con vos
Em                                 D
Ya me explicaste mil veces, lo que veo es lo que sos.


Em       G            D      C          Em       D
Sé que te vas a las nueve, sé que me muero a las diez

Puente:

riff:
e -----------/
B -----------/
G -----------/
D -----------/
A -----------/
E -0-2-3-G#7(dejar sonar)/

F#7               G7
No puedo dar garantías
F#7                     G7               Gm
Si se apaga cada día, no creo que pueda esperar.

D                            Am
Yo te lo quise hacer fácil, la distancia no es el fin
Em                                  D
Pero no quiero entregarme y que algo muera en mi
D                             Am
Ya se, no  tenes  idea, vos te vas y yo me quedo
Em                           D
Solo voy a perdonarte porque otra cosa no quiero.

Em        G          D          C    Em             D
Sé que te vas a las nueve, sé que me muero a las diez
 Em       G         D           C    Em             D
Sé que te vas a las nueve, sé que me muero a las diez
Em         G                D
A las nueve, me muero a las diez...

Solo:

e---------------------------------------/
B---------------------------------------/
G---------------------------------------/
D-12(8 veces)-10-9--7-9-7-5-7-4---------/
A-------------------------------5-------/
E---------------------------------------/

e----------------------------------------------------/
B----------------------------------------------------/
G-11-12-11----11-12-11-------------------------------/
D----------12----------12--12-14-12------------------/
A----------------------------------------------------/
E----------------------------------------------------/

e----------------------------------------------------/
B----------------------------12-12-15-15-13-15-------/
G----------11-11-12-12-14-14-------------------------/
D-12-14-14-------------------------------------------/
A----------------------------------------------------/
E----------------------------------------------------/

e-------17----17--------17----17-------17/19-------/
B-15-15----15-----15-15----15----15-15-------------/
G--------------------------------------------------/
D--------------------------------------------------/
A--------------------------------------------------/
E--------------------------------------------------/

e-17-17-17-15-15-15-14-15-14-------14-15-14--------14-15-14----------------/
B---------------------------15-17----------15--15----------15-15-17-15-----/
G--------------------------------------------------------------------------/
D--------------------------------------------------------------------------/
A--------------------------------------------------------------------------/
E--------------------------------------------------------------------------/

G7:
E-3-/
B-3-/
G-4-/
D-3-/
A-5-/
E-3-/
Envía el tono de "A las 9" a tu celular/móvil
Este fichero es trabajo propio de su transcriptor y representa su interpretación personal de la canción. El material contenido en esta página es
para exclusivo uso privado, por lo que se prohibe su reproducción o retransmisión, así como su uso para fines comerciales.
© LaCuerda.net · Aviso Legal · Privacidad