Tablatura para Guitarra de Música Religiosa: Padre nuestro
Conexión · Inscripción
Letras y Acordes
Pantalla Completa
Imprimir
Versión Texto
Añadir Favorito
Otras Versiones

Mostrar Diagramas
Desfile Automático
Manipular Acordes
Formato del Texto


Música Religiosa
Padre nuestro(TAB)
calidad:
mrel0594
AUTOR: Música Religiosa  corregir
ALBUM: desconocido
Enviado por jhonatan
intro(guitarra uno)

e|-------------------|-------------------|--------------------------|
b|-------------------|-------------------|-------------1-1--3---1---|
g|----------2-2--0---|------------0-0----|---------2-2--------------|
d|-0-0--3-3----------|--------2-2------3-|-3--3-3-------------------|
a|-------------------|-3--3-3------------|--------------------------|
e|-------------------|-------------------|--------------------------|

/
e|-----------------------|------------0-1-2-2-1-0--------------|
b|----------1-1--3---1---|------3-3---------------3-1--3-1-----|
g|------2-2--------------|---------------------------------2---|
d|-3-3-------------------|-3-3---------------------------------|
a|-----------------------|-------------------------------------|
e|-----------------------|-------------------------------------|

/
e|------------------|-------------------|-----------------|
b|-------1----------|-------------------|-----------------|
g|------------------|-----------2-2-0---|---------0-0-----|
d|-3-3-3----2-3-0---|-0-0-0-3-3---------|-----0-0-----3---|
a|------------------|-------------------|-3-3-------------|
e|------------------|-------------------|-----------------|

/
e|---------------------|------------------------
b|---------1-1-3---1---|-----------1-1-3-3-1----
g|-----2-2-------------|-------2-2--------------
d|-3-3-----------------|-3-3-3------------------
a|---------------------|------------------------
e|---------------------|------------------------

e|--------------0-1-1-1-0----|
b|-----3-3-3--3-----------3--|
g|---------------------------|
d|-3-3-----------------------|
a|---------------------------|
e|---------------------------|



(guitarra 2)

Em D padre nuestro tu que estas,
Em en los que aman la verdad
DO SOL que el reino que nos prometio
DO SOL llegue pronto a nuestro corazon
DO SOL que el amor que tu hijo nos dejo
MI RE MIm el amor habite en nosotros. (aquí se puede volver a meter el intro, con 2 guitarras)
MIm RE en el pan de la unidad
MIm cristo danos tu la paz
DO SOL y olvidate de nuestro mal
MIm DO SOL si olvidamos el de los demas
DO no permitas
SOL MIm que caigamos en tentacion oh señor
RE MIm y ten piedad del mundo es una tablatura muy simple puedes usar el rasgado de balada pop
Este fichero es trabajo propio de su transcriptor y representa su interpretación personal de la canción. El material contenido en esta página es
para exclusivo uso privado, por lo que se prohibe su reproducción o retransmisión, así como su uso para fines comerciales.
© LaCuerda.net · Aviso Legal · Privacidad