Tablatura para Guitarra de Música de TV: Dragon ball gt - caprichosa
Conexión · Inscripción
Letras y Acordes
Pantalla Completa
Imprimir
Versión Texto
Añadir Favorito
Otras Versiones

Mostrar Diagramas
Desfile Automático
Manipular Acordes
Formato del Texto

Música de TV
Dragon ball gt - caprichosa(TAB)
calidad:
mdtv1633
AUTOR: Orlando
ALBUM: Dragon ball gt (2006)
Enviado por Federico
Muchas veces lo sé. No te importan los demás.
                                           Tu quieres todo hacer a tu manera,
                                                   Porque te comportas así.
E|-----------------|---------------|---------------------|-------------------|
B|-------2-------2-|---2-3-3-2-----|-----2-2-3-----2-2-3-|---2---------2-----|
G|-----4-------4---|-----------4-4-|---4---------4-------|-4---4-2-2-4---4---|
D|-2-2-----2-2-----|-2-------------|-4---------4---------|-------------------|
A|-----------------|---------------|---------------------|-------------------|
E|-----------------|---------------|---------------------|-------------------|


Es solo una ilusión  En el pasado que se fue            Y te hacen llorar,
Que quieres tu vivir.La gente te daña, no lo comprendes. angustiada estas
E|-----------------|---------------------|---------------0---|
B|-------2-------2-|-----2-2-3-----2-2-3-|-3---2-------3---3-|
G|-----4-------4---|---4---------4-------|---4---4-2-2-------|
D|-2-2-----2-2-----|-4---------4---------|-------------------|
A|-----------------|---------------------|-------------------|
E|-----------------|---------------------|-------------------|




Con las personas nunca  Pero sola nunca    Porque yo estaré .
       te entiendes           estarás            ahí
E|------0-0-0-0---2-0-|------0-0-0-0---2-0-|-------------0-|
B|----2---------2-----|----2---------2-----|-3-3-3-2-2-3---|
G|2-4---------------|2-4---------------|-------------|
D|--------------------|--------------------|---------------|
A|--------------------|--------------------|---------------|
E|--------------------|--------------------|---------------|



Ya veras, aunque mil   Cuando de noche llegues a tu casa Y el alma
 tormentas vendrán.                              sientas herida
E|---0-3----2-0-2-2-|---------------------|------------------------|
B|-2----------------|-------2-2-2-2-------|------2-------2-3-3-3-3-|
G|-------2----------|---2-4---------2-4-2-|----2---4-2-4-----------|
D|------------------|-4-------------------|4-4---------------------|
A|------------------|---------------------|------------------------|
E|------------------|---------------------|------------------------|




Cuenta conmigo amor, porque tu
y yo uno solo seremos los dos. Muchas cosas juntos vamos hace
E|------0---0-3---2-0-2-2-|-----------1---2------|
B|--2-3---2-----2---------|-------2-2---2---2----|
G|------------------------|---2-4------------4-2-|
D|------------------------|-4--------------------|
A|------------------------|----------------------|
E|------------------------|----------------------|




El valor va ha
defenderte      Mientras vivas aquí
E|--------------|---0---0-------|
B|----2---------|-3---2---------|
G|--2---4-2-2-4-|---------4-2-2-|
D|4------------|-------------|
A|--------------|---------------|
E|--------------|---------------|
Este fichero es trabajo propio de su transcriptor y representa su interpretación personal de la canción. El material contenido en esta página es
para exclusivo uso privado, por lo que se prohibe su reproducción o retransmisión, así como su uso para fines comerciales.
© LaCuerda.net · Aviso Legal · Privacidad